Matt Glover

Less Than Jake 
Pete Jackson Is Getting Married Intro
Standard Tuning

|-------------------------------------------------------------------------------
|---10---10---10---10---10---10------11---11------8---8---8---8---8---8---11-11-
|-----10---10---10---10---10---10------10---10-----7---7---7---7---7---7--------
|-------------------------------------------------------------------------------
|-------------------------------------------------------------------------------
|-------------------------------------------------------------------------------


|-------------------------------------------------------------------------------
|----10---10---10---10---10---10-------11---11--------8---8---8---8---8---8-----
|------10---10---10---10---10---10-------10---10-------7---7---7---7---7---7----
|-------------------------------------------------------------------------------
|-------------------------------------------------------------------------------
|-------------------------------------------------------------------------------

|------------------------|
|-----11--11--10---------|
|-------------10---------|
|------------------------|
|------------------------|
|------------------------|


Текст, аккорды и табулатура для песни "Pete Jackson Is Getting Married", исполняет "Less Than Jake".
Используемые в песне аккорды можно найти в разделе Как брать аккорды. Аккорды для шестиструнной гитары. Другие песни можно найти на нашем сайте, воспользовавшись алфавитным указателем вверху страницы.


 
Ошибка в тексте? Выделите ошибку и нажмите Ctrl+Enter