-------------------------------------------------------------------------------
PETE JACKSON IS GETTING MARRIED - Less Than Jake
-------------------------------------------------------------------------------
Intro :


e|--------------------------------------------------------------------------|
B|--10----10----10----10----10----10----11----11----------------------------|
G|-----10----10----10----10----10----10----10----10-------------------------|
D|--------------------------------------------------------------------------|
A|--------------------------------------------------------------------------|
E|--------------------------------------------------------------------------|

e|--------------------------------------------------------------------------|
B|--8---8---8---8---8---8----/13--11-10-11----------------------------------|
G|----7---7---7---7---7---7-------------------------------------------------|
D|--------------------------------------------------------------------------|
A|--------------------------------------------------------------------------|
E|--------------------------------------------------------------------------|

Verse: F...|A#...|G...|C...|

Chorus: I can smell his cousin's Polo........
e|--------------------------------------------------------------------------|
B|--------------------------------------------------------------------------|
G|-----------------------10-X-X-X-10-X-X-X----------------------------------|
D|--8-8-8-8--10-10-10-10-10-X-X-X-10-X-X-X----------------------------------| X2
A|--8-8-8-8--10-10-10-10--8-X-X-X--8-X-X-X----------------------------------|
E|--6-6-6-6---8--8--8--8----------------------------------------------------|

The swedish meatballs look so tempting, that his two fat aunts might even fight
e|--------------------------------------------------------------------------|
B|--------------------------------------------------------------------------|
G|-------------------------10--9--7-----------------------------------------|
D|--8-8-8-8--10-10-10-10---10--9--7----8-8-8-8--10--------------------------|
A|--8-8-8-8--10-10-10-10----8--7--5----8-8-8-8--10--------------------------|
E|--6-6-6-6---8--8--8--8---------------6-6-6-6---8--------------------------|

Na Na Na's and last verse
e|--------------------------------------------------------------------------|
B|--------------------------------------------------------------------------|
G|-10--10------------7---7---7---7-----------10--10-------------------------|
D|-10--10---10--10---7---7---7---7---6---6---10--10---10--10--10--10--------|
A|--8---8---10--10---5---5---5---5---6---6----8---8---10--10--10--10--------|
E|-----------8---8-------------------4---4-------------8---8---8---8--------|

Outro
F A# G C C
e|------------------------------------------|-------------------------------|
B|--10--10--11--11--8---8----/13-11-10-11---|-------- end on ---10----------|
G|----10--10--11--11--7---7-----------------|-------------------------------|
D|------------------------------------------|-X2----------------------------|
A|------------------------------------------|-------------------------------|
E|------------------------------------------|-------------------------------|

Enjoy, By Stu.
=============================================================================


Текст, аккорды и табулатура для песни "Pete Jackson Is Getting Married", исполняет "Less Than Jake".
Используемые в песне аккорды можно найти в разделе Как брать аккорды. Аккорды для шестиструнной гитары. Другие песни можно найти на нашем сайте, воспользовавшись алфавитным указателем вверху страницы.


 
Ошибка в тексте? Выделите ошибку и нажмите Ctrl+Enter