LAST HOUR OF THE LAST DAY OF WORK - Less Than Jake 

By:ED LEYLAND ([email protected])

INTRO:(lead) 
e|------------------------9--------------------------------------------------| 
B|----6---7---9---6---7------------------------------------------------------| 
G|--6---6---6---6---6---6----------------------------------------------------| 
D|---------------------------------------------------------------------------| 
A|---------------------------------------------------------------------------| 
E|---------------------------------------------------------------------------| 

INTRO/VERSE:
e|---------------------------------------------------------------------------| 
B|---------------------------------------------------------------------------| 
G|---------------------------------------------------------------------------| 
D|--6-6-6-6--6-6-6-6---------------------------------------------------------| 
A|--4-4-4-4--4-4-4-4--4-4-4-4--4-4-4-4---------------------------------------| 
E|--------------------1-1-1-1--2-2-2-2---------------------------------------| 

PRE-CHORUS:(palm muted) 
e|---------------------------------------------------------------------------| 
B|---------------------------------------------------------------------------| 
G|---------------------------------------------------------------------------| 
D|---------------------------------------------------------------------------| 
A|--6-6-6-6-6-6-6-6----------------------------------------------------------| 
E|--4-4-4-4-4-4-4-4----------------------------------------------------------| 

CHORUS:listen to cd
e|---------------------------------------------------------------------------| 
B|---------------------------------------------------------------------------| 
G|---------------------------------------------------------------------------| X3
D|--6-6-6xx---------8-8-8xx----------6-6-6xx---------------------------------| 
A|--4-4-4xx-6-6-6xx-6-6-6xx-4-4-4-4--4-4-4xx-6-6-6xx-8-8-8xx--4-4-4-4--------| 
E|----------4-4-4xx---------2-2-2-2----------4-4-4xx-6-6-6xx--2-2-2-2--------| 

e|---------------------------------------------------------------------------| 
B|---------------------------------------------------------------------------| 
G|---------------------------------------------------------------------------| 
D|--6-6-6xx---------8-8-8xx--------------------------8-8-8xx-----------------| 
A|--4-4-4xx-6-6-6xx-6-6-6xx-4-4-4-4--8-8-8---4-4-4xx-6-6-6xx--2-2-2-2--------| 
E|----------4-4-4xx---------2-2-2-2--6-6-6---2-2-2xx----------4-4-4-4--------| 

BRIDGE:(lead) 
e|---------------------------------------------------------------------------| 
B|--7---7--6---6--4---4--6---6-----------------------------------------------| 
G|----6------6------6------6-------------------------------------------------| 
D|---------------------------------------------------------------------------| 
A|---------------------------------------------------------------------------| 
E|---------------------------------------------------------------------------| 

BRIDGE:(rythm) 
e|---------------------------------------------------------------------------| 
B|---------------------------------------------------------------------------| 
G|---------------------------------------------------------------------------| 
D|----------6----------------------------------------------------------------| 
A|--8--4-4--4--6-6--8--4-4-4-4-6-6-------------------------------------------| 
E|--6--2-2-----4-4--6--1-1-2-2-4-4-------------------------------------------| 

Finish on C#


Текст, аккорды и табулатура для песни "Last Hour Of The Last Day Of Work", исполняет "Less Than Jake".
Используемые в песне аккорды можно найти в разделе Как брать аккорды. Аккорды для шестиструнной гитары. Другие песни можно найти на нашем сайте, воспользовавшись алфавитным указателем вверху страницы.


 
Ошибка в тексте? Выделите ошибку и нажмите Ctrl+Enter