JUST LIKE FRANK

LESS THAN JAKE
Losing Streak CD
Originally Tabbed by [email protected]
Corrected version by Dave Leskowitz [email protected]
With thanks to Kieth, his lesson teacher

Intro:
G: -----------------------------------------
D:--------------------------------7--7-- 7
A:17 / 5555-5555-5555-5555--5---5--5
E: -----------------------------------------

VERSE
G:----------------------------------------
D:----------------------------------------   (4x)
A:5555---2222----------------0-------
E:---------------------0000 33--3------

PRE CHORUS   (When someone's politics...)
G:---------------------------------------------------------------
D:-------------------------------------5555---45--45-----------
A:-------------------7777--7777----------------------45-45---
E:5555---5555--------------------------------------------------

G:-------------------------------------------------------------
D:----------------------------------------5555 5555 5557--
A:-----------------7777--7777--7777------------------------
E:5555--5555---------------------------------------------


CHORUS: (Just like anyone, he's just like frank etc.)
G:------------------------------------------
D:-------------------------55--4-5-4----
A:5555----------7777------------------
E:--------5555---------------------------


BRIDGE 1: (really funky bit)
G:--------------------------------------------------------------0-000--------------------
D:----------------55-454------------4--------------4-----------------------5-----------
A:---55----55------------5----------------------0-----77-------------------------------    (2x)
E:-------5------------------------77------777--------------0----------33-----555--7--

BRIDGE 2

G------------------------------------------
D-----------55-454-----------------------
A -------------------5-----------55-5555        repeat  5x
E-3-55-33------------3-55-33----------

There. That is the corrected version. The timing in the bridge is hard, but listen to the song and you'll
get it.



Текст, аккорды и табулатура для песни "Just Like Frank", исполняет "Less Than Jake".
Используемые в песне аккорды можно найти в разделе Как брать аккорды. Аккорды для шестиструнной гитары. Другие песни можно найти на нашем сайте, воспользовавшись алфавитным указателем вверху страницы.


 
Ошибка в тексте? Выделите ошибку и нажмите Ctrl+Enter