---------------------------------------------------------------------------
            Johnny Quest Thinks We're Sellouts - Less Than Jake
---------------------------------------------------------------------------
Tabbed by: Sam Smith
Email: I'm not telling ( I don't have my own )

Tuning: Standard, Fast Rock ( Verse Ska Style )

  Intro
e|-4-x-4-x-4-x-4-x-4-x-4-x-4-x-4----------------------------------------------|
B|-5-x-5-x-5-x-5-x-4-x-4-x-4-x-4----------------------------------------------|
G|-6-x-6-x-6-x-6-x-5-x-5-x-5-x-5----------------------------------------------|
D|-6-x-6-x-6-x-6-x-6-x-6-x-6-x-6----------------------------------------------|
A|-4-x-4-x-4-x-4-x-6-x-6-x-6-x-6----------------------------------------------|
E|-4-x-4-x-4-x-4-x-4-x-4-x-4-x-4----------------------------------------------|
  
  Solo ( Bit when Horns Stop after Intro ) Play Fast and mute in between
  sometimes. Use up and down strokes.
e|-4------4-------------------------------------------------------------|
B|-5------4-------------------------------------------------------------|
G|-6-etc--5-etc---------------------------------------------------------|
D|-6------6-------------------------------------------------------------|
A|-4--------------------------------------------------------------------|
E|-4--------------------------------------------------------------------|

  Verse ( the same as the intro just played alot faster )
e|-4-x-4-x-4-x-4-x-4-x-4-x-4-x-4----------------------------------------------|
B|-5-x-5-x-5-x-5-x-4-x-4-x-4-x-4----------------------------------------------|
G|-6-x-6-x-6-x-6-x-5-x-5-x-5-x-5----------------------------------------------|
D|-6-x-6-x-6-x-6-x-6-x-6-x-6-x-6----------------------------------------------|
A|-4-x-4-x-4-x-4-x-6-x-6-x-6-x-6----------------------------------------------|
E|-4-x-4-x-4-x-4-x-4-x-4-x-4-x-4----------------------------------------------|
                   G#major
 Chorus ( end verse with G#major )

e|---------------------------------------------------------------------------|
B|---------------------------------------------------------------------------|
G|-3-3---------6-6-6-6-------------------------------------------------------[
D|-3-3-4-4-4-4-6-6-6-6-6-6-6-6-----------------------------------------------[
A|-1-1-4-4-4-4-4-4-4-4-6-6-6-6-----------------------------------------------[
E|-----2-2-2-2---------4-4-4-4-----------------------------------------------[

 Solo ( The Chorus chords are played to back up the Horns )

e|---------------------------------------------------------------------------[
B|---------------------------------------------------------------------------[
G|-3-3---------6-6-6-6-------------------------------------------------------[
D|-3-3-4-4-4-4-6-6-6-6-6-6-6-6-----------------------------------------------[
A|-1-1-4-4-4-4-4-4-4-4-6-6-6-6-----------------------------------------------[
E|-----2-2-2-2---------4-4-4-4-----------------------------------------------[

  Solo ( Played on horns but here it is anyway ) I'm not sure about the bends

e|---------------------------------------------------------------------------[
B|---------------------------------------------------------------------------[
G|---------------------------------------------------------------------------[
D|-3-3----3-3----3-3----3-3--------------------3-3----3-3--------------------[
A|----4-4b---6-6b---4-4b---6-6b--1-1/-4-444/-6----4-4b---6b------------------[
E|---------------------------------------------------------------------------[
 
  End With
e|-4-4-4--4-4-4-4-4----------------------------------------------------------|
B|-6-6-4--6-6-4-4-4----------------------------------------------------------|
G|-5-5-6--5-5-6-6-6----------------------------------------------------------|
D|-5-5-5--5-5-5-5-5----------------------------------------------------------|
A|-4-4-5--4-4-5-5-5----------------------------------------------------------|
E|-4-4-4--4-4-4-4-4----------------------------------------------------------|

| /  slide up
|   slide down
| h  hammer-on
| p  pull-off
| ~  vibrato
| +  harmonic
| x  Mute note
===============================================================================


Текст, аккорды и табулатура для песни "Johnny Quest Thinks Were Sellouts", исполняет "Less Than Jake".
Используемые в песне аккорды можно найти в разделе Как брать аккорды. Аккорды для шестиструнной гитары. Другие песни можно найти на нашем сайте, воспользовавшись алфавитным указателем вверху страницы.


 
Ошибка в тексте? Выделите ошибку и нажмите Ctrl+Enter