T1: justin, [email protected], less than jake, i think i
love you

S1: 
Intro Riff x1
e|-------------------------------------------------|
B|-------------------------------------------------|
G|---------3------------------------------2--4--3--|
D|-1---4-------4--3--3--4--3------1---4------------|
A|----------------------------1--------------------|
E|-------------------------------------------------|

Verse PT1 x2 
e|-------------------------------------------------------------|
B|-------------------------------------------------------------|
G|-8-8-8-8-8-8-8-----------------6-6-6-6-6-6-6-----------------|
D|-8-8-8-8-8-8-8--8-8-8-8-8-8-8--6-6-6-6-6-6-6--6-6-6-6-6-6-6--|
A|-6-6-6-6-6-6-6--8-8-8-8-8-8-8--4-4-4-4-4-4-4--6-6-6-6-6-6-6--|
E|----------------6-6-6-6-6-6-6-----------------4-4-4-4-4-4-4--|
I'm sleeping and right in the middle....

Verse PT2 x1
e|----------------|
B|----------------|
G|-6--/--8-~~~~~--|
D|-6--/--8-~~~~~--|
A|-4--/--6-~~~~~--|
E|----------------|

Verse Pt1
Verse Pt2

Chorus x2
e|----------------------------------------------------------|
B|----------------------------------------------------------|
G|---------------8-8-8-8-8-8-8---------------6-6-6-6-6-6-6--|
D|-6-6-6-6-6-6-6-8-8-8-8-8-8-8-8-8-8-8-8-8-8-6-6-6-6-6-6-6--|
A|-6-6-6-6-6-6-6-6-6-6-6-6-6-6-8-8-8-8-8-8-8-4-4-4-4-4-4-4--|
E|-4-4-4-4-4-4-4---------------6-6-6-6-6-6-6----------------|




Текст, аккорды и табулатура для песни "I Think I Love You", исполняет "Less Than Jake".
Используемые в песне аккорды можно найти в разделе Как брать аккорды. Аккорды для шестиструнной гитары. Другие песни можно найти на нашем сайте, воспользовавшись алфавитным указателем вверху страницы.


 
Ошибка в тексте? Выделите ошибку и нажмите Ctrl+Enter