-------------------------------------------------------------------------------
History Of A Boring Town – Less Than Jake
-------------------------------------------------------------------------------

God Dam I love this band! I hadn’t listened to Hello Rockview for a while
and I’ve decided to tab out this song and hopefully a few others in the near 
future so keep a look out!  When your playing the Ska parts just use the
bottom three string, as that’s how chris plays it you see! 

Enjoy

Verse part 1
e|-5x5x5x5x5x5x5x5x5x5x5—-3x3x3x3x3x3x3--5x5x5x5x5x5x5--|
B|-5x5x5x5x5x5x5x5x5x5x5—-3x3x3x3x3x3x3--7x7x7x7x7x7x7--|
G|-6x6x6x6x6x6x6x6x6x6x6—-4x4x4x4x4x4x4—-7x7x7x7x7x7x7--|
D|-7x7x7x7x7x7x7x7x7x7x7—-5x5x5x5x5x5x5—-7x7x7x7x7x7x7--|
A|-7x7x7x7x7x7x7x7x7x7x7—-5x5x5x5x5x5x5--5x5x5x5x5x5x5--|
E|-5x5x5x5x5x5x5x5x5x5x5--3x3x3x3x3x3x3-----------------|

Verse part 2
e|-5x5x5x5x5--3x3x3--5x5x5------|
B|-5x5x5x5x5--3x3x3--7x7x7------|
G|-6x6x6x6x6--4x4x4--7x7x7------|
D|-7x7x7x7x7—-5x5x5--7x7x7------|
A|-7x7x7x7x7—-5x5x5--5x5x5------|
E|-5x5x5x5x5—-3x3x3-------------|

Verse part 3
e|-5x5x5x5x5--7x7x7x7x7--3x3x3x3x3x3x3x3--------|
B|-5x5x5x5x5--7x7x7x7x7--3x3x3x3x3x3x3x3--------|
G|-6x6x6x6x6--8x8x8x8x8--4x4x4x4x4x4x4x4--------|
D|-7x7x7x7x7--9x9x9x9x9--5x5x5x5x5x5x5x5--------|
A|-7x7x7x7x7--9x9x9x9x9--5x5x5x5x5x5x5x5--------|
E|-5x5x5x5x5--7x7x7x7x7--3x3x3x3x3x3x3x3--------|

Verse part 4
e|-5x5x5x5x5--7x7x7x7x7---3x3--5x5x5--5x5----|
B|-5x5x5x5x5--7x7x7x7x7---3x3--7x7x7--5x5----|
G|-6x6x6x6x6--8x8x8x8x8---4x4--7x7x7--6x6----|
D|-7x7x7x7x7--9x9x9x9x9---5x5—-7x7x7--7x7----|
A|-7x7x7x7x7--9x9x9x9x9---5x5—-5x5x5—-7x7----|
E|-5x5x5x5x5--7x7x7x7x7---3x3---------5x5----|

Verse part 5
e|-5x5x5x5x5--7x7x7x7x7----------------------|
B|-5x5x5x5x5--7x7x7x7x7----------------------|
G|-6x6x6x6x6--8x8x8x8x8--77777777-99999999---|
D|-7x7x7x7x7--9x9x9x9x9--77777777-99999999---|
A|-7x7x7x7x7--9x9x9x9x9--55555555-77777777---|
E|-5x5x5x5x5--7x7x7x7x7----------------------|

Chorus
e|-----------------------------------------------------|
B|-----------------------------------------------------|
G|-------------------------------------777777777777----|
D|-777777777-2222222222-4444444-222222-777777777777----|
A|-777777777-2222222222-4444444-222222-555555555555----|
E|-555555555-0000000000-2222222-000000-----------------|

Verse part 6
e|-12x12x12x12x12x12x12x12-10x10x10x10x10---5x5x5x5x5-----|
B|-14x14x14x14x15x15x15x15-12x12x12x12x12---7x7x7x7x7-----|
G|-14x14x14x14x14x14x14x14-12x12x12x12x12---7x7x7x7x7-----|
D|-14x14x14x14x14x14x14x14-12x12x12x12x12---7x7x7x7x7-----|
A|-12x12x12x12x12x12x12x12—10x10x10x10x10---5x5x5x5x5-----|
E|--------------------------------------------------------|

Bridge
e|------------------------------------------------------------|
B|------------------------------------------------------------|
G|--------777777----------------------777777--------999999----|
D|-999999-777777-777777-222222-555555-777777-777777-999999----|
A|-999999-555555-777777-222222-555555-555555-777777-777777----|
E|-777777--------555555-000000-333333--------555555-----------|

e|-------------------------------------------|
B|-------------------------------------------|
G|--------777777---------------------7-7-7~~-|
D|-999999-777777-777777-222222-5-5-5-7-7-7~~-|
A|-999999-555555-777777-222222-5-5-5-5-5-5~~-|
E|-777777--------555555-000000-3-3-3---------|

Solo
e|---------------------------------------------------------------------|
B|---------7--------------------------------7---------------------7-7--|
G|-9-9-9-9---9-7-6---------9-7-7-7--9-9-9-9---9-7-6---------9-7-7------|
D|-----------------9-7-7-7--------------------------9-7-7-7------------|
A|---------------------------------------------------------------------|
E|---------------------------------------------------------------------|

e|---------------------------------------------------------------------|
B|---------------------------------------------------------8-7---------|
G|-7p9h7p9h7p9h7p9h7p9-----------------9p7h9p7h9p7h9p7h9p7-----9-7-7-9-|
D|---------------------9-9-9-9-7-7-7-7---------------------------------|
A|---------------------------------------------------------------------|
E|---------------------------------------------------------------------|

Post solo
e|--------------------------------|
B|--------------------------------|
G|-------------------7777777------|
D|--7~~~-----5555555-7777777------|
A|--7~~~-----5555555-5555555------|
E|--5~~~-----3333333--------------|

Ending part 1
e|------------------------------------|
B|------------------------------------|
G|------------------------77777777----|
D|-77777777777777-5555555-77777777----|
A|-77777777777777-5555555-55555555----|
E|-55555555555555-3333333-------------|

Ending part 2
e|-------------------------------|
B|-------------------------------|
G|-----------------------77777---|
D|-7777777777-9999999999-77777---|
A|-7777777777-9999999999-55555---|
E|-5555555555-7777777777---------|

Ending part 3
e|-------------------------------------------------|
B|-------------------------------------------------|
G|-----------------------7-7-7-7-7-9-9-9-9-9-9-----|
D|-7777777777-9999999999-7-7-7-7-7-9-9-9-9-9-9-----|
A|-7777777777-9999999999-5-5-5-5-5-7-7-7-7-7-7-----|
E|-5555555555-7777777777---------------------------|

Ending part 4
e|-X-----------------------------------|
B|-X-----------------------------------|
G|-X-----------------------77777777----|
D|-X77777777777777-5555555-77777777----|
A|-X77777777777777-5555555-55555555----|
E|-X55555555555555-3333333-------------|

Verse part 1 x2
Verse part 2 x2
Verse part 3

Verse part 1 x2
Verse part 2 x2
Verse part 4
Verse part 1 x2
Verse part 2 x2
Verse part 5
Chorus x2

Verse part 1 x2
Verse part 6
Verse part 2 x2
Verse part 5
Chorus x2

Bridge
Solo
Post solo

Ending part 1 x3
Ending part 2 x2
Ending part 3 
Ending part 4 x4
End on A

Sorry it’s such a long tab guys but I actually tried on this one
 to get everything perfect on it and I know that its correct but 
please rate what you think of it and shit like that peeps!!

e-mail [email protected]

================================================================


Текст, аккорды и табулатура для песни "History Of A Boring Town", исполняет "Less Than Jake".
Используемые в песне аккорды можно найти в разделе Как брать аккорды. Аккорды для шестиструнной гитары. Другие песни можно найти на нашем сайте, воспользовавшись алфавитным указателем вверху страницы.


 
Ошибка в тексте? Выделите ошибку и нажмите Ctrl+Enter