The other version didnt have it all so i decided to do the whole song. I think this is 
pretty accurate.

x2 with trombone inro play:
e------------------
b------------------
g----------6-------
d--2---7---6---4---
a--2---7---4---4---
e--0---5-------2---

then chris does this small solo: (h=hammer on)

e----------------------------------
b----------------------------------
g----------------------------------
d--------------6h7-6h7-------------
a--5h7-4h5-2h4---------5h7-4h5-2h4-

------------------------------------------------
------------------------------------------------
---------------------------------------7--2-----
--6h7-6h7-------------6h7-6h7----------7--2-----
----------5h7-4h5-2h4---------5h7-4h5--5--0-----

then do the whole solo again then when the trombone solo comes in, play this

--------------------------------------------
--------------------------------------------
--------------------------------------------
---222222222222222222722222222222222222227-2
---222222222222222222722222222222222222227-2
---000000000000000000500000000000000000005-0

then its just bass for the verse except for some distortion.
Then for the chorus play: (play each x4)

------------------------------------
------------------------------------
-----4-----6-----4-----6--4--2------
--4--4--2--6--4--4--2--6--4--2--2---
--4--2--2--4--4--2--2--4--2--0--2---
--2-----0-----2-----0-----------0---

then play the part with the trombone solo again.

In the second verse play this a couple of times:

-------------12--12------
---------------------12--
-------------------------
-------------------------
-------------------------
-------------------------

its then another chorus.

After the chorus its the intro again then after the intro you just play the solo from the 
start through the final chorus, which is a bit faster, and the outro.

I think thats it!


Текст, аккорды и табулатура для песни "Gainsville Rock City", исполняет "Less Than Jake".
Используемые в песне аккорды можно найти в разделе Как брать аккорды. Аккорды для шестиструнной гитары. Другие песни можно найти на нашем сайте, воспользовавшись алфавитным указателем вверху страницы.


 
Ошибка в тексте? Выделите ошибку и нажмите Ctrl+Enter