Artist: Less Than Jake
Title: Escape From The A-Bomb House
Album: Anthem

INTRO
|-------------------------------------
|-------------------------------------
|--6-6-6-6--9-9-9-9--8-8-8-8-8-8-8-8--
|--6-6-6-6--9-9-9-9--8-8-8-8-8-8-8-8--
|--4-4-4-4--7-7-7-7--6-6-6-6-6-6-6-6--
|-------------------------------------

|-------------------------------------
|-------------------------------------
|--6-6-6-6--9-9-9-9--8-8-8-8-8-8-8-8--
|--6-6-6-6--9-9-9-9--8-8-8-8-8-8-8-8--
|--4-4-4-4--7-7-7-7--6-6-6-6-6-6-6-6--
|-------------------------------------

|-------------------------------------5555555555555555--
|-------------------------------------5555555555555555--
|--6-6-6-6--9-9-9-9--8-8-8-8-8-8-8-8--6666666666666666--
|--6-6-6-6--9-9-9-9--8-8-8-8-8-8-8-8--7777777777777777--
|--6-6-6-6--9-9-9-9--8-8-8-8-8-8-8-8--7777777777777777--
|-------------------------------------5555555555555555--

|-------------------------------------5555555555555555--
|-------------------------------------5555555555555555--
|--6-6-6-6--9-9-9-9--8-8-8-8-8-8-8-8--6666666666666666--
|--6-6-6-6--9-9-9-9--8-8-8-8-8-8-8-8--7777777777777777--
|--6-6-6-6--9-9-9-9--8-8-8-8-8-8-8-8--7777777777777777--
|-------------------------------------5555555555555555--

VERSE: X2 
|-------------4---------4--------5--------5--
|--------------------------------------------
|--6~------6---------6---------6-------6-----
|--6~----6---------6---------7-------7-------
|--4~--4---------4---------7-------7---------
|--------------------------------------------

PRE CHORUS:
|--------------------------------55555555--------------
|--------------------------------55555555--------------
|--99999999--88888888--66666666--66666666--8/99999999--
|--99999999--88888888--66666666--77777777--8/99999999--
|--77777777--66666666--44444444--77777777--6/77777777--
|--------------------------------55555555--------------

|----------------------55555555--
|----------------------55555555--
|--88888888--66666666--66666666--
|--88888888--66666666--77777777--
|--66666666--44444444--77777777--
|----------------------55555555--

CHORUS:
|------------555555-----------------------------
|------------555555-----------------------------
|--66666666--666666--8/99999999-----------------
|--66666666--777777--8/99999999--99999999-------
|--44444444--777777--6/77777777--99999999-------
|------------555555--------------77777777-------

|------------555555-----------------------------
|------------555555-----------------------------
|--66666666--666666--8/99999999-----------------
|--66666666--777777--8/99999999--99999999-------
|--44444444--777777--6/77777777--99999999-------
|------------555555--------------77777777-------

|--------------------5555555555555555--
|--------------------5555555555555555--
|--6666666666666666--6666666666666666--
|--6666666666666666--7777777777777777--
|--4444444444444444--7777777777777777--
|--------------------5555555555555555--

VERSE: X2
PRE CHORUS:

CHORUS:
|------------555555-----------------------------
|------------555555-----------------------------
|--66666666--666666--8/99999999-----------------
|--66666666--777777--8/99999999--99999999-------
|--44444444--777777--6/77777777--99999999-------
|------------555555--------------77777777-------

|------------555555-----------------------------
|------------555555-----------------------------
|--66666666--666666--8/99999999-----------------
|--66666666--777777--8/99999999--99999999-------
|--44444444--777777--6/77777777--99999999-------
|------------555555--------------77777777-------

|--------------------------------55555555--------------
|--------------------------------55555555--------------
|--99999999--88888888--66666666--66666666--8/99999999--
|--99999999--88888888--66666666--77777777--8/99999999--
|--77777777--66666666--44444444--77777777--6/77777777--
|--------------------------------55555555--------------

|----------------------55555555-----------------------------------
|----------------------55555555-----------------------------------
|--88888888--66666666--66666666--9999xxxx9999xxxx99xx99xx9x9x9x9--
|--88888888--66666666--77777777--9999xxxx9999xxxx99xx99xx9x9x9x9--
|--66666666--44444444--77777777--7777xxxx7777xxxx77xx77xx7x7x7x7--
|----------------------55555555-----------------------------------

BRIDGE: (i can tab this trombone/sax bit in octaves but i can't be arsed. just work it out)

CHORUS:
|------------555555-----------------------------
|------------555555-----------------------------
|--66666666--666666--8/99999999-----------------
|--66666666--777777--8/99999999--99999999-------
|--44444444--777777--6/77777777--99999999-------
|------------555555--------------77777777-------

|------------555555-----------------------------
|------------555555-----------------------------
|--66666666--666666--8/99999999-----------------
|--66666666--777777--8/99999999--99999999-------
|--44444444--777777--6/77777777--99999999-------
|------------555555--------------77777777-------

Do this bit 4 times.
|--------------------------------55555555----
|--------------------------------55555555----
|--99999999--88888888--66666666--66666666--8/
|--99999999--88888888--66666666--77777777--8/
|--77777777--66666666--44444444--77777777--6/
|--------------------------------55555555----

OUTRO:
|-------------------------------------------------
|-------------------------------------------------
|--99999999--7777--------99999999--7777--------9~-
|--99999999--7777--7777--99999999--7777--7777--9~-
|--77777777--5555--7777--77777777--5555--7777--7~-
|------------------5555------------------5555-----

Any questions or complaints, e-mail me: [email protected]


Текст, аккорды и табулатура для песни "Escape From The A-bomb House", исполняет "Less Than Jake".
Используемые в песне аккорды можно найти в разделе Как брать аккорды. Аккорды для шестиструнной гитары. Другие песни можно найти на нашем сайте, воспользовавшись алфавитным указателем вверху страницы.


 
Ошибка в тексте? Выделите ошибку и нажмите Ctrl+Enter