Song: Dopeman
Artist: Less Than Jake
Album: Losing Streak on Capitol Records
Lyrics by Vinnie, Music by LTJ
(c)1996 Capitol Records
------------------
Original tab by: Justin Reynolds ([email protected])
Corrections by: Brandon Silverman ([email protected]) bassist for Skapunknick

Ok, Justin had a nice try, but all he got right was an alternate intro.  Here's
the correct one:

Intro:

G:-------------------------------------------------------
D:-------------------------------------------------------
A:------------3------------------3-----------------------
E:-3--------3---------3--------3-------------------------

Verse:

G:-------------------------------------------------------
D:----------------2-----4--------------------------------
A:---------2-----3-----5---------------------------------
E:---3---3---3-------------------------------------------

Chorus:

G:-------------------------------------------------------
D:----2-3-5------------2-3-5-----------------------------
A:--3---------0---2--3---------0---2---------------------
E:----------1---3------------1---3-----------------------

Bass Solo:

G:----------------------------------------------------------------------
D:--------------------------------------------------------------4-5-4-0-
A:--------2-3-5-3-2-3-3-3-2-3-5---------2-3-5-3-2-3-3-3-2-3-5-3---------
E:-3-3--3------------------------3-3--3---------------------------------

Alternate Intro:

G:-54-54---------4--------54-54--------------------54-54--------4------------
D:-------75---4-5--5-4-5--------75----4-5-7-5-4-5--------75--4-5--5-4-5------
A:-----------5----------------------5-----------------------5--------------3-
E:----------------------------------------------------------------------3----

Now, you can play the alternate intro instead of the first one, but you don't 
get the same rhythm you get in the first one.  

That's all! Have fun kids!


Текст, аккорды и табулатура для песни "Dopeman", исполняет "Less Than Jake".
Используемые в песне аккорды можно найти в разделе Как брать аккорды. Аккорды для шестиструнной гитары. Другие песни можно найти на нашем сайте, воспользовавшись алфавитным указателем вверху страницы.


 
Ошибка в тексте? Выделите ошибку и нажмите Ctrl+Enter