Bm Bm/A Bm/G# Bm/G
e|-------2---------2---------2---------2---------------------|
B|-----3---3-----3---3-----3---3-----3---3-------------------|
G|---4---------2---------1---------0-------------------------|
D|-----------------------------------------------------------|
A|-----------------------------------------------------------|
E|-----------------------------------------------------------|
You are my weakness You are my
 

Cadd9 Dadd9
e|-----------8----------------8----------------10----------------10--------|
B|-------5-------5--------5-------5--------7--------7--------7--------7----|
G|-----5---5---5---5----5---5---5---5----7---7----7---7----7---7----7---7--|
D|---5----------------5----------------7-----------------7-----------------|
A|-------------------------------------------------------------------------|
E|-------------------------------------------------------------------------|
Strength Nothing I have in the world makes better sense


G F#aug
e|--3-----3------------2---2-------------3------------------------|
B|--0-----0------------3---3-------------0------------------------|
G|--0-----0------------3---3-------------0------------------------|
D|--0-----0------------4---4-------------0------------------------|
A|--2-----2------------------------------2------------------------|
E|--3-----3------------------------------3------------------------|
Cause I'm the fish and you're the sea when we're together...


(and the verse goes on like that till:

F#m B E A B
One day at a time is all we do........we do

G#7 C#m F#m G#7 C#m C#m(maj7) C#m7 D5- G7
One day at a time is good for you oohoo oohoo ooooo {e|-2h4p2-} ____

=======================================================
Lyrics:

You are my weakness, you are my strength
Nothing I have in the world makes better sense
Cause I'm a fish and you're the sea

When we're together or when we're apart
There's never a space in between the beat of our hearts
Cause I'm the apple and you're the tree

One day at a time is all we do
One day at a time is good for you

You are my woman, I am your man
Nothing else matters at all, now I understand
That I'm the door and you're the key

And every morning I wake in your smile
Feeling your breath on my face and the love in your eyes
Cause you're the honey and I'm the bee

One day at a time is all we do
One day at a time is good for us too (you too)

Cause I'm the fish and you're the sea
Cause I'm the apple and you're the tree
Cause I'm the door and you're the key
Cause you're the honey and I'm the bee


Текст, аккорды и табулатура для песни "One Day At A Time", исполняет "Lennon John".
Используемые в песне аккорды можно найти в разделе Как брать аккорды. Аккорды для шестиструнной гитары. Другие песни можно найти на нашем сайте, воспользовавшись алфавитным указателем вверху страницы.


Слушать онлайн One Day At A Time


Elton JohnOne Day At A Time на Яндекс.Музыке


 
Ошибка в тексте? Выделите ошибку и нажмите Ctrl+Enter