H7       Em
 Стра-а-даю!
               H7
Я по тебе страдаю!
      C
Бу-у-хаю!
                H7
Десятый день бухаю !

    Em
Мечтаю!
             H7
Я о тебе мечтаю!
     C
Страдаю!
               H7
Я по тебе страдаю!

Проигрыш:

Em      Em+ Em  
H7      H7+ H7  
C    
H7      H7+ H7


Em      H7
Лью, ночами слезы лью
C    H7
Я тебя люблю,люблю
Em      H7
Лью, ночами слезы лью
C    H7
Я тебя люблю,люблю

Проигрыш:

 Em                        H7              C                        H7    
--0--0--3-5-3-2-----------2--2---2-2--0--0----3-5-3-2-----------2--2------------
--0--0----------5-3-------0--0---0-0--1--1------------5-3-------0--0----tremolo-
--0--0--------------5-4---2--2---2-2--0--0----------------5-4---2--2---2-/--14--
--2--2--------------------1--1---1-1--2--2----------------------1--1---1-/--13--
--2--2--------------------2--2---2-2--3--3----------------------2--2---2-/--14--
--0--0--------------------------------------------------------------------------


Em      H7
Лью, ночами слезы лью
C    H7
Я тебя люблю,люблю
Em      H7
Лью, ночами слезы лью
C    H7
Я тебя люблю,люблю

etc...
Куплеты могут повторяться очень долго


Em+            H7+
                     
--0---        --2--
--1---        --1--
--0---        --2--
--2---        --0-- 
--2---        --2--
--0---        -----


Текст, аккорды и табулатура для песни "Страдаю", исполняет "Ленинград".
Используемые в песне аккорды можно найти в разделе Как брать аккорды. Аккорды для шестиструнной гитары. Другие песни можно найти на нашем сайте, воспользовавшись алфавитным указателем вверху страницы.


 
Ошибка в тексте? Выделите ошибку и нажмите Ctrl+Enter