e----------------1------1------------3-
h|---1-----0*----------1-----3------1------1-0-1-3-
g|-0-0-0-2-0-----2*-0--0*----2------2---0*-2*----4-
d|---2-----2-2-2-3---3-2--------0-2-3*-3---3-----5-
a|---3-----2-----3-----3-3-3--------3------3-----5-
e------------------------------------3-
     C     Em    F     C     Dm     F      F     G

     
e|---0*--------------------0-----------------------------
h|---1-3-1-0-1-3*---1*-0-0-0*----1-----1------1*-0-------
g|-0-0---------4-2--2---2--0-----2*-0--0-----------2-4---
d|---2---------5--3-2------2-2-2-3---3-2-------------5---
a|---3---------5----0------2-----3-----3*-3-3-3------5---
e--------------------------------------------
     C     G    Am    Em    F     C      F      G

                             
e|--0*------------------------------------------
h|--1-3-1-01-3*----1*-0-----0*----1*-01*-01*-01-
g|--0--------0-0-0-2---2-02-0-----2-2-2-2-2-----
d|--2-----------------------2-2-2-3---3---3-----
a|--3--------2-----0--------------3---3---3-----
e|-(0)------------------------------------------
    C  Am   Em7   Am       Em     F 

   ^
e|-1*-0-----0*----------------------------------------------
h|-3---3-13-1-1-1-3*-1-0--0-1*----1*-0--1--------------0-1*-
g|-2--------2-----2------2--2-2-2-2---2-0*--------0*-2*--0--
d|-0--------------0---------------3-----2---------2--3---2--
a|----------0---------------0-----3-----3-3-3-----3--3---3--
e-----------------------------------------------
   Dm       Am    Dm        Am    F               C  F   C


Текст, аккорды и табулатура для песни "Привет, Джимми Хендрикс!", исполняет "Ленинград".
Используемые в песне аккорды можно найти в разделе Как брать аккорды. Аккорды для шестиструнной гитары. Другие песни можно найти на нашем сайте, воспользовавшись алфавитным указателем вверху страницы.


 
Ошибка в тексте? Выделите ошибку и нажмите Ctrl+Enter