Мелодия мобильника:

    Am     F      Dm              G(III)
e|--0-3----3-0----5-3-5-3-5-3-5-3-5-7------|
B------------------------------|
G------------------------------|
D------------------------------|


Аккорды (которые играет гармошка):

             Am                 F               Dm            G(III)
e|0---0-0---0-0---|1---1-1---1-1---|1---1-1---1-1------|
B|1---1-1---1-1---|1---1-1---1-1---|3---3-3---3-3---|3---3-3---3---|
G|2---2-2---2-2---|2---2-2---2-2---|2---2-2---2-2---|4---4-4---4---|
D---------------|5---5-5---5---|


Гитарный перебор:

e|--------7-------7----|
B|--8-5-8---8-5-8------|
G----------|
D----------|


Бас:

G--------------------------------|
D--------------------------------|
A3-3----3-2-0-0----0-------------|
E|--0-0----0---------------------3-3----3-2--|


Текст, аккорды и табулатура для песни "Мобильник", исполняет "Ленинград".
Используемые в песне аккорды можно найти в разделе Как брать аккорды. Аккорды для шестиструнной гитары. Другие песни можно найти на нашем сайте, воспользовавшись алфавитным указателем вверху страницы.


 
Ошибка в тексте? Выделите ошибку и нажмите Ctrl+Enter