- A#7 и A7 (барэ на 1 ладу) играть со слайдом наверх.
	- ^ - слайд.
	- Dm* - 1]-1-----:
		2]-----3-:
		3]---2---:
		4]-----3-:

    intro
gtr. 1
4]-----0-0-0-----0-0-0-----0-0-0--------------0-0-0------0-0-0-----0-0-0--------
5]-4^5-------4^5-------4^5----------------4^5-------4^5--------4^5--------------
gtr. 2
1]----------------------------------1-0-1---------------------------------5-4-5-

gtr.1
3]-----2-2-2-----2-2-2-----2-2-2--------------2-1-0-----------:
4]-2^3-------2^3-------2^3-------3------------------4-3-----0-:
5]--------------------------------------------------------4---:	Е-й
gtr.2
1]------------------------------------10-9-10-5-4-3-2-1-------:
2]--------------------------------------------------------2-3-:


gtr.1
4]-----0-0-0-----0-0-0-----0-0-0---------------0-0-0-----0-0-0-----0-0-0--------
5]-4^5-------4^5-------4^5-------5--------4^5-------4^5-------4^5---------------
gtr.2
1]---------------------------------1-0-1-------------------------------5-4-5----
gtr.3
---Dm-------------------------------------Dm*-----------------------------------

gtr.1
3]-----2-2-2-----2-2-2-----2-2-2---------------2-----1---0------------------:
4]-2^3-------2^3-------2^3-------3--------------------------4-3----0--------:
5]-----------------------------------------------------------------------4--:
gtr.2
1]------------------------------------10-9-10--5-----4---3--2-1-------------: 
2]-----------------------------------------------------------------2-----3--:
gtr.3
---Dm(V)---------------------------------------Dm(V)-C#--C--H-A#---A(V)--Dm-:

 Dm
Мы пришли сюда затем, чтоб веселиться
	       C (со слайдом наверх)
И потанцевать, если повезет.
   Am
А песня моя - она как птица -
   C	     Am     Dm
В воздухе летает и бешено орет.

    припев:
 Dm		A#7  A7
Комон еврибади,
  Dm			  A#7  A7
Двигай жопой суки, бляди.
 Dm		A#7  A7
Комон еврибади,
  Dm                      A#7 A7  A#7 A7  A#7 A7
Двигай жопой суки, бляди.
 Dm		    A#7 A7  A#7 A7  A#7 A7   Dm
Ча-ча-ча. Еу, соло


    intro: -------

Пива надо выпить - в горле пересохло,
В горле пересохло - на душе тоска.
Ну что же ты приятель еще не колбасишся,
Надо колбаситься, и вот моя рука.

    припев: -------
	  A#7 A7  A#7 A7  A#7 A7
Еще раз.
 Dm
Ча-ча-ча.


Вроде все.
У кого какие замечания пишите на [email protected]


Текст, аккорды и табулатура для песни "Комон Эврибади", исполняет "Ленинград".
Используемые в песне аккорды можно найти в разделе Как брать аккорды. Аккорды для шестиструнной гитары. Другие песни можно найти на нашем сайте, воспользовавшись алфавитным указателем вверху страницы.


 
Ошибка в тексте? Выделите ошибку и нажмите Ctrl+Enter