Intro:

                                                x2 раза                          
1------------------------||
2------------------------||  
3||--6-7-7-7--6-7-7-7--6-7-7-7-7-6-7-------------||  
4||--x-x-x-x--x-x-x-x--x-x-x-x-x-x-x-------------|| 
5||--4-5-5-5--4-5-5-5--4-5-5-5-5-4-5-------------||
6------------------------||

1---------------------------||
2---------------------------||  
3||--9-10-10-10--9-10-10-10--9-10-10-10-10--9-10----||  
4||--x--x--x--x--x--x--x--x--x--x--x--x--x--x--x----||  
5||--7--8--8--8--7--8--8--8--7--8--8--8--8--7--8----||
6---------------------------||

1------------------||
2------------------|| 
3||--14--13--12--11--10----6/7-------------||  
4||---x---x---x---x---x----x-x-------------||
5||--12--11--10---9---8----4/5-------------||
6------------------||


Intro играется 2 раза.Первый раз более отрывисто (правая рука играет только боем вниз), 
второй раз правая рука играет туда-обратно.

Dm
Вы пришли сюда затем ,чтоб веселиться
              C
И потанцевать, если повезет.
 A
А песня моя, она как птица.
 A7                 D5     
В воздухе летает и бешено оре-ее-ееее-т!

Припев (2 раза)

D5               Ab5/A5 A5 A5  Ab5/A5 A5 A5
Ко-мон эврибади!!!
D5               Ab5/A5 A5 A5  Ab5/A5 A5 A5
Двигай жопой, суки-бляди!!!


Проигрыш после припева:

Ab5/A5 A5 A5  Ab5/A5 A5 A5   Db5/D5 D5 D5 D5 D5 D5 (2 раза) 

Intro 2 раза:


Dm
Пива нада выпить-в горле пересохло.
                  C
В горле пересохло,на душе тоска.
 A
Ну что же ты, приятель, еще не колбасишься?
 A7                 D5
Надо колбаситься и вот моя рука !!!


Ко-мон эврибади!!!

Двигай жопой, суки-бляди!!!
	
	
	        
Комментарий автора: Единственно верная версия песни.Шнур ее именно так и играет. А не так ,как тут некоторые написали. Они просто не знают,что такое игра октавами на нижних струнах. И пытались спародировать вступление на 1 струне. Ха-ха-ха, ребята! Песня на самом деле крайне старая, она просто почему-то не вошла ни в \"Пулю\",ни в \"Мат\" ... Ее еще Вдовин на концертах пел. Шнур тогда объявлял эту песню так : \"Посвящяется нашей любимой группе Prodigy !!\"

Текст, аккорды и табулатура для песни "Комон Эврибади", исполняет "Ленинград".
Используемые в песне аккорды можно найти в разделе Как брать аккорды. Аккорды для шестиструнной гитары. Другие песни можно найти на нашем сайте, воспользовавшись алфавитным указателем вверху страницы.


 
Ошибка в тексте? Выделите ошибку и нажмите Ctrl+Enter