Могучий рифф 2 раза
Hm
Ты называешь меня говнюком
Em
Да, я все время бухой
F#
И твою жопу при людях хватаю
Hm
Своей волосатой рукой.

аналогично
Да, мои ноги вонючие палки 
На которых все в дырках носки
А эти две кучи из пыли и грязи -
Это мои башмаки.

Могучий рифф

Em F#
Да, ты права, я - дикий мужчина,
Em F#
Ты права, я - дикий мужчина,
Em F#
Ты права, я - дикий мужчина:
Hm
Яйца, табак, перегар и щетина

Могучий рифф

Да, ты права, я - дикий мужчина,
Ты права, я - дикий мужчина,
Ты права, я - дикий мужчина:
Яйца, табак, перегар и щетина

Могучий рифф 2 раза
Могучий рифф: 
   Hm   
e----------------|    
B----------------|    
G|-4---------4---------4-----|    
D|---4----4----4----4----4---|    
A|------5---------5--------5-|   
E----------------|   
   Em
e----------------|    
B----------------|    
G|-4---------4---------4-----|    
D|---5--2-5----5--2-5----5-2-|    
A----------------|   
E----------------|   
   F#                         
e----------------|
B|-2---------2---------2-----|
G|---3----3----3----3----3---|
D|------4---------4--------4-|
A----------------|
E----------------|
   Hm   
e----------------|    
B----------------|    
G|-4---------4----4----------|    
D|---4----4----4-------------|    
A|------5--------------------|   
E----------------| 


Текст, аккорды и табулатура для песни "Дикий мужчина", исполняет "Ленинград".
Используемые в песне аккорды можно найти в разделе Как брать аккорды. Аккорды для шестиструнной гитары. Другие песни можно найти на нашем сайте, воспользовавшись алфавитным указателем вверху страницы.


 
Ошибка в тексте? Выделите ошибку и нажмите Ctrl+Enter