Em D C H | 2раза
С D C H

Вот само соло

1|----------------5-7-------------------------------------------------|
2|-8-7-8--8-7-8-8-----7-5-7--7-5-7--5-3-5--5-3-5--5-7-8--4-2-4--4-2-4-| 2x

1|-----------5-7----------------|-----------------------------|
2|----8-8--8-----10-8-10-10-8-10|----8-8--8--10-12-12~-10-8-7-|
3|--5---------------------------|--5--------------------------|

мобильник


1|-------------------------------7-|
2|----8--8---8-10-8-10-8-10-8-10---|
3|--9------9-----------------------|



Текст, аккорды и табулатура для песни "Бумер", исполняет "Ленинград".
Используемые в песне аккорды можно найти в разделе Как брать аккорды. Аккорды для шестиструнной гитары. Другие песни можно найти на нашем сайте, воспользовавшись алфавитным указателем вверху страницы.


 
Ошибка в тексте? Выделите ошибку и нажмите Ctrl+Enter