Песня играется всего на трех аккордах: Cm(3) A#(6) G#(4)

Вступление: ( 2 раза )
    Cm    A#       G#      A#         Cm     A#      G#      A#
1--------------------------------------------|
26-4-6-4---4--8-6-4-0--|----------6-4-6-8---8--11-9-8-6--|
3|---5--0--3-----------------------|--5--0--3------------------------|
4--------------------------------------------|
5--------------------------------------------|
6--------------------------------------------|

        Cm             Cm               Cm
1-------------|
2-------------|
3-------------|
4|--5-5-5-5-5-5------|-5-5-5-5-5-5----|
5--3---3---3--|
6----|-3-3-3-3-3-3--------|


   Cm                   A#
1. У меня, как обычно - все отлично.
   G#            A#
   Мои корабли уходят в запой.
   Cm                    A#
   У тебя, как обычно - все очень цинично:
    G#               A#
   "Мол, за собой посуду помой!"
   Cm             A#
   Ну и, конечно, все эти бабы,
   G#              A#
   Которые содятся мне на конец.
   Cm             A#
   О, я еб..сь с ними со всеми,
   G#              A#
   Но без тебя пи...ц!!!

Припев:
   Cm     A#     G#        A#
   Без тебя пи...ц!!!
                     2|--4--8-6-4-0--|

   Cm     A#     G#        A#
   Без тебя пи...ц!!!
                     2|--8--11-9-8-6-|

   Cm     A#     G#        A#
   Без тебя пи...ц!!!
                     2|--4--8-6-4-0--|

   Cm     A#     G#        A#
   Без тебя пи...ц!!!
                     2|--8--11-9-8-6-|

Проигрыш: ( как вступление, 2 раза )

2. Знаю, знаю ты - одна такая.
   Знаю, знаю ты - одна такая,
   Знаю, знаю ты - одна такая есть,оу ес!!!
   Знаю, знаю ты - одна такая.
   Знаю, знаю ты - одна такая,
   Знаю, знаю ты - одна такая
   Знаю, знаю без тебя пи...ц!!!
 
Припев:

Концовка совсем чуть-чуть отличается от Вступления:

    Cm     A#      G#      A#        Cm     A#      G#      A#            A#           A#      Cm
1--------------------------------------------------|
26-4-6-4---4--8-6-4-0--|----------6-4-6-8---8--11-9-8-6--|--11-9-8-6--|--11-9-8-6--13--|
3|---5--0--3-----------------------|--5--0--3------------------------------|
4--------------------------------------------------|
5--------------------------------------------------|
6--------------------------------------------------|


Текст, аккорды и табулатура для песни "Без тебя пиздец", исполняет "Ленинград".
Используемые в песне аккорды можно найти в разделе Как брать аккорды. Аккорды для шестиструнной гитары. Другие песни можно найти на нашем сайте, воспользовавшись алфавитным указателем вверху страницы.


 
Ошибка в тексте? Выделите ошибку и нажмите Ctrl+Enter