Intro:

E|---3/6-7---7---7---7-8-5---5-----5-----5-----------7---7-
H|---------8---8---8-----------5-----5-----10-9-10-9-------
G--------------5-----5-----5------9-10-9---7---
D---------------------------------9-10-9-------
A----------------------------------------------
E|-------0-------0-------5-----------------8---------7-----

E|----------0-----12-------0---3/6-7---7---7---7-8-5---5---
H|7-------0---0------12------0-------8---8---8-----------5-
G|--7---0-------0-------12---------------------------5-----
D----------------------------------------------
A----------------------------------------------
E|----0----------------------------0-------0-------5-------

E|--5-----5---------------7---7-----------0-----12-------0-
H|----5---------10-9-10-9-------7-------0---0------12------
G|5-----5----------9-10-9---7-----7---0-------0-------12---
D------9-10-9----------------------------------
A----------------------------------------------
E|----------5-7-8---------7---------0----------------------

E|----
H|0---
G|--0-
D|----
A|----
E|----

Луна и снег Немного странный вечер
Какой-то необычный непростой
О чем-то нам нашептывает ветер
Февральский ветер пахнущий весной

И мы идем Лед под ногами хрупок
И чуток этот полуночный час...
Как яблоко разламывает с хрустом
Мороз луну наверное для нас

        Припев:

            G             D             Em
	Молчим молчим молчим о чем-то скованно
	   G             D        C
	О том, что знаем оба ты и я
	   G           D            Em
	О том чего не выскажешь и словом
	   Am            Hm         Em
	О чем весной прошепчут тополя

А лунный свет - серебряная мягкость -
Накладывает тени под глаза
И гасит их безудержную яркость
И помогает все недосказать

А снег а снег а снег так мягко сыплет
Так медленен и тих спокойный шаг
И кроме нас с тобой никто не слышит
Как Это слово бьется на губах


Текст, аккорды и табулатура для песни "Двое", исполняет "Легион".
Используемые в песне аккорды можно найти в разделе Как брать аккорды. Аккорды для шестиструнной гитары. Другие песни можно найти на нашем сайте, воспользовавшись алфавитным указателем вверху страницы.


Слушать онлайн Двое


ЛегионДвое на Яндекс.Музыке


 
Ошибка в тексте? Выделите ошибку и нажмите Ctrl+Enter