-------------------------------------------------------------------------------
So You Wanna Be A Cop - Leftover Crack
-------------------------------------------------------------------------------
Tabbed by: James Muggleton
Email: [email protected]

Tuning:EADGBE

Intro 
e|---------------------------------------------------------------------------|
B|---------------------------------------------------------------------------|
G|------------4--------------------------------------------------------------|
D|-7----------4----------4----------2---x2---2-------------------------------|
A|-7----------2----------4----------2--------2-------------------------------|
E|-5---------------------2----------0--------0-------------------------------|

Intro 1 & Chorus 1      Riff                    Verse
e|---------------------------------------------------------------------------|
B|---------------------------------------------------------------------------|
G|----4--------------9--14--13--9--11-9--------------------------------------|
D|-7--4--4--2—-x4------------------------x4--7--------7----------------------|
A|-7--2--4--2--------7--12--11--7--9--7------7--------7----------------------|
E|-5-----2--0--------------------------------5--------5----------------------|

Chorus 2
e|---------------------------------------------------------------------------|
B|---------------------------------------------------------------------------|
G|---------------------------------------------------------------------------|
D|-77777777—-99999999—-77777777--99999999------------------------------------|
A|-55555555--77777777--55555555--77777777------------------------------------|
E|---------------------------------------------------------------------------|

Chorus 3
e|---------------------------------------------------------------------------|
B|---------------------------------------------------------------------------|
G|---------------------------------------------------------------------------|
D|-2--4--6--7--14--9--11-7---------------------------------------------------|
A|-0-—2—-4--5—-12—-7—-9--5---------------------------------------------------|
E|---------------------------------------------------------------------------|

Interlude
e|---------------------------------------------------------------------------|
B|---------------------------------------------------------------------------|
G|----------11-----9-----14--13--9--14--13--9--------------------------------|
D|-7----9---11-----9---------------------------------------------------------|
A|-7----9----9-----7-----12--11--7--12--11—-7--------------------------------|
E|-5----7--------------------------------------------------------------------|

Song Order:
Intro
Intro 1
Intro 1 + Riff
Verse x2
Chorus 1 x2
Chorus 2
Chorus 3
Verse
Chorus 1 x 2
Chorus 2
Chorus 3
Interlude
Intro 1 + Riff

| /  slide up
|   slide down
| h  hammer-on
| p  pull-off
| ~  vibrato
| +  harmonic
| x  Mute note
===============================================================================


Текст, аккорды и табулатура для песни "So You Wanna Be A Cop", исполняет "Leftover Crack".
Используемые в песне аккорды можно найти в разделе Как брать аккорды. Аккорды для шестиструнной гитары. Другие песни можно найти на нашем сайте, воспользовавшись алфавитным указателем вверху страницы.


Слушать онлайн So You Wanna Be A Cop?


F-Minus\/Leftover CrackSo You Wanna Be A Cop? на Яндекс.Музыке


 
Ошибка в тексте? Выделите ошибку и нажмите Ctrl+Enter