Tommy Lee - Hold Me Down
Submitted By: Meelis Saard
EMail: [email protected]

EADG

p= brake

NOTE: i didn't put timings absolutely correct.
i put in the chorus just the notes not how many times the note comes.
in every chorus the first C# (A-4-) comes an octave lower.

INTRO
-------------------------------------
-------------------------------------
-------7/-10/-14----12-104----/7----
--9----------------------------------

VERSE I don't make everyone happy...
----------------------------------------------
----------------------------------------------
--4--4-4--4-p--2--2-2--2-p--4--4-4--4-p-------
-----------------------------------------0----

-----------------------------------------------------
-----------------------------------------------------
--4----2-4-2-4--2--0-2-0-2--4--4--4-4--4--4/14-------
-----------------------------------------------12----

chorus 1
--------------------------------------------------------------------
------------------------7-9/11--------------------------------------
--4-4-4-4-4-4-7-7-7-7-9---------4-4-4-4-4-4-------------------------
--------------------------------------------7-7-7-7-7-7-5-5-5-5-5-5-

-------------------------------------------------------------------
------------------------7/9-7--------------------------------------
--4-4-4-4-4-4-7-7-7-7-9--------4-4-4-4-4-4-------------------------
-------------------------------------------7-7-7-7-7-7-2-2-2-2-2-2-

chorus 2
--------------------------------------
----------------------9-7-9---7/9h11--
--4-4-4-4-4-4-7-7-7-7-------9---------
--------------------------------------... third and fourth time

and right after chorus
----------------------6-----------------------------------
------------------------9-7-9--7--------------------------
--4-4-4-4-4-4-7-7-7-7-------------4-4-4-4-----------------
------------------------------------------7-7-7-7-5-5-5-5-
i am drowning...
----------------------------------------------------------
------------------------7/9-------------------------------
--4-4-4-4-4-4-7-7-7-7-9-----9--7--4-4-4-4-----------------
------------------------------------------7-7-7-7-5-5-5-5-
i am drowning        i am sinking
----------------------6-------6-----------------------------
------------------------9-7-9---9-7-------------------------
--4-4-4-4-4-4-7-7-7-7---------------4-4-4-4-----------------
--------------------------------------------7-7-7-7-2-2-2-2-

chorus 3
----------------------------------------------------------
------------------------7/9--/11--------------------------
--4-4-4-4-4-4-7-7-7-7-9-----------4-4-4-4-----------------
------------------------------------------7-7-7-7-5-5-5-5-

------------------------------------------------------
------------------------7/11--------------------------
--4-4-4-4-4-4-7-7-7-7-9-------4-4-4-4-----------------
--------------------------------------7-7-7-7-2-2-2-2-
===========
Tommy Lee - Hold Me Down
Tabbed By: Cory Petrow
EMail: [email protected]
(Drop Db tuning)

(INTRO)
G: -----------------------
D: -----------------------
A: -5-/15--15--15--15---5--
Db:-----------------------3

(VERSE)2X
G: -----------------------------------------
D: -----------------------------------------
A: -5--5--5--5/15--15--15--15---5--5--5--5--
Db:-----------------------------------------3

(CHORUS)
G: ---------------------------------------------------------------------
D: ---------------------------------------------------------------------
A: ---------------------------------------------------------------------
Db:--0-0-0---0-0-0---0-0-0---3-3-3--3-3-3---3-3-3-0-0--0-0---0-0-0---0-0

(CHORUS) continued
G: ---------------------
D: ---------------------
A: -3-3-3---1-1-1--1-1-1
Db:-----------------------0-0-0--0-0-0--0-0-0--3-3-3--3-3-3--3-3-3---0-0--0-0--0--00

(CHORUS) continued
G: ----
D: ----
A: -0-0
Db:----

(INTRO)

(VERSE) 2X

(CHORUS)

Tabbed by Cory Petrow ([email protected])


Текст, аккорды и табулатура для песни "Hold Me Down", исполняет "Lee Tommy".
Используемые в песне аккорды можно найти в разделе Как брать аккорды. Аккорды для шестиструнной гитары. Другие песни можно найти на нашем сайте, воспользовавшись алфавитным указателем вверху страницы.


 
Ошибка в тексте? Выделите ошибку и нажмите Ctrl+Enter