-----------------------------------------------------------------------------
                 Led Zeppelin - Your Time Is Gonna Come
-----------------------------------------------------------------------------
Transcribed By Victor Ochoa


E|-----------3---0|---3---0--------|-----------3---0|---3---0--------|
B|----------3---3-|--3---3---------|----------3---3-|--3---3---------|
G|---------0---0--|-0---0----------|---------0---0--|-0---0----------|
D|0---------------|----------03-03-|0---------------|----------03-03-|
A|--------3-------|--------03------|--------3-------|--------03------|
E|----------------|----------------|----------------|----------------|

E|------2----3---0|---3---0--------|------2----3---0|---3---0--------|
B|----3-----3---3-|--3---3---------|----3-----3---3-|--3---3---------|
G|--2------0---0--|-0---0----------|--2------0---0--|-0---0----------|
D|0---------------|----------03-03-|0---------------|----------03-03-| Play 3 times
A|--------3-------|--------03------|--------3-------|--------03------|
E|----------------|----------------|----------------|----------------|

E|------2----3---0|---3---0--------|------5----7---5|---3---3---5---3||
B|----3-----3---3-|--3---3---------|----7-----5---5-|--5---5---3---3-||
G|--2------0---0--|-0---0----------|--7------6---6--|-5---5---4---4--||
D|0---------------|----------03-03-|0-------0---0---|0---0---0---0---||
A|--------3-------|--------03------|----------------|----------------||
E|----------------|----------------|----------------|----------------||

E|----2---3-2-0-2-|----3-3---------|2---2---3-2-0-2-|--333-----------|
B|----3---3-3-3-3-|----3-3---------|3---3---3-3-3-3-|--333-----------|
G|----2---2-2-2-2-|----0-0-000000-0|2---2---2-2-2-2-|--000---0-0-----|
D|-0--0---0-0-0-0-|0-0-----00000000|0---0---0-0-0-0-|--------0-0---00|
A|----------------|2-2-----------2-|0---------------|------------02--|
E|----------------|3-3-------------|----------------|3---------------|
  Your time is gonna come.....

E|----2-223-2-0-2-|----3-333333----|----2-223-2-0-2-|------3-3---3---|
B|3-3-3-333-3-3-3-|----3-333333----|3-3-3-333-3-3-3-|------3-3---3---|
G|2-2-2-222-2-2-2-|----0-000000---0|2-2-2-222-2-2-2-|------0-0---0---|
D|0-0-0-000-0-0-0-|0-0-----0000-000|0-0-0-000-0-0-0-|0---------------|
A|----------------|2-2---------202-|----------------|2---------------|
E|----------------|3-3---------3---|----------------|3---------------|
  Your time is gonna come.....

E|----------------|----------------||
B|----------------|333333333333-33-||
G|2222222200000000|000000000000-00-||
D|0000000022222222|000000000003-03-||
A|0000000033333333|2222222203------||
E|----------------|----------------||

E|------2----3---0|---3---0--------|------2----3---0|---3---0--------|
B|----3-----3---3-|--3---3---------|----3-----3---3-|--3---3---------|
G|--2------0---0--|-0---0----------|--2------0---0--|-0---0----------|
D|0---------------|----------03-03-|0---------------|----------03-03-| Play 3 times
A|--------3-------|--------03------|--------3-------|--------03------|
E|----------------|----------------|----------------|----------------|

E|------2----3---0|---3---0--------|------5----7---5|---3---3---5---3||
B|----3-----3---3-|--3---3---------|----7-----5---5-|--5---5---3---3-||
G|--2------0---0--|-0---0----------|--7------6---6--|-5---5---4---4--||
D|0---------------|----------03-03-|0-------0---0---|0---0---0---0---||
A|--------3-------|--------03------|----------------|----------------||
E|----------------|----------------|----------------|----------------||

E|----2---3-2-0-2-|----3-3---------|2---2---3-2-0-2-|--333-----------|
B|----3---3-3-3-3-|----3-3---------|3---3---3-3-3-3-|--333-----------|
G|----2---2-2-2-2-|----0-0-000000-0|2---2---2-2-2-2-|--000---0-0-----|
D|-0--0---0-0-0-0-|0-0-----00000000|0---0---0-0-0-0-|--------0-0---00|
A|----------------|2-2-----------2-|0---------------|------------02--|
E|----------------|3-3-------------|----------------|3---------------|
  Your time is gonna come.....

E|----2-223-2-0-2-|----3-333333----|----2-223-2-0-2-|3---3---3-3-3333|
B|3-3-3-333-3-3-3-|----3-333333----|3-3-3-333-3-3-3-|3---3---3-3-3333|
G|2-2-2-222-2-2-2-|----0-000000---0|2-2-2-222-2-2-2-|0---0---0-0-0000|
D|0-0-0-000-0-0-0-|0-0-----0000-000|0-0-0-000-0-0-0-|0---0---0-0-0000| Repeat chorus
A|----------------|2-2---------202-|----------------|2---2---2-2-2222| and fade
E|----------------|3-3---------3---|----------------|3---3---3-3-3333|
  Your time is gonna come.....


Текст, аккорды и табулатура для песни "Your Time Is Gonna Come", исполняет "Led Zeppelin".
Используемые в песне аккорды можно найти в разделе Как брать аккорды. Аккорды для шестиструнной гитары. Другие песни можно найти на нашем сайте, воспользовавшись алфавитным указателем вверху страницы.


 
Ошибка в тексте? Выделите ошибку и нажмите Ctrl+Enter