----------------------------------------------------------------------------
             Led Zeppelin - What Is And What Should Never Be
----------------------------------------------------------------------------     
Transcribed by Victor Ochoa

Standard Tuning

E| ----------------|2-2-2-2-2-2-2-20|2-22222-2-2-2-0-|2-2-2-2-2-2-2-20|
B| ----------------|2-2-2-2-2-2-2-20|3-33333-3-3-3-0-|2-2-2-2-2-2-2-20|
G|o----------------|0-0-0-0-0-0-0-00|1-11111-1-1-1-0-|0-0-0-0-0-0-0-00|
D|o----------------|2-2-2-2-2-2-2-2-|2-22222-2-2-2---|2-2-2-2-2-2-2-2-|
A| ----------------|----------------|----------------|----------------|
E| ----------------|----------------|----------------|----------------|
   And if I say to you tomorrow.....

E|2-22222-2-2-2-0-|2-2-2-2-2-2-2-20|2-22222-2-0-2-0-|2-2-2-2-2-2-2---||
B|3-33333-3-3-3-0-|2-2-2-2-2-2-2-20|3-33333-3-0-3-0-|2-2-2-2-2-2-2---||
G|1-11111-1-1-1-0-|0-0-0-0-0-0-0-00|1-11111-1-0-1-0-|0-0-0-0-0-0-0---||
D|2-22222-2-2-2---|2-2-2-2-2-2-2-2-|2-22222-2---2---|2-2-2-2-2-2-2---||
A|----------------|----------------|----------------|----------------||
E|----------------|----------------|----------------|----------------||

E|----------------|----------------|----------------|----------------|
B|----------------|---------3------|----------------|---------3------|
G|----------------|---------2--2---|----------------|---------2--2---|
D|7-7775--5-555---|4-444----0--2---|7-7775--5-555---|4-444----0--2---|
A|0-000---0-000---|0-000-------0---|0-000---0-000---|0-000-------0---|
E|----------------|----------------|----------------|----------------|
  Catch the wind, see us spin.....

E|----------------|----------------|----------------|----------------|
B|----------------|------------4---|----------------|----------------|
G|--4---4---4---4-|--4---4-----4---|----------------|2---------------|
D|--4---4---4---4-|--4---4--2--4---|4---------------|2---------------|
A|2---2---0---0---|---------2------|4---------------|0---------------|
E|----------------|4---4----0------|2---------------|-------------3--|

E|----------------|---------------- |
B|----------------|-----5--79--79-- |
G|----------------|--4-6-----------o|
D|----------------|--(second time)-o|
A|----------------|---------------- |
E|0---------------|---------------- |

  Guitar Solo (w/ verse and chorus rhythm)
E|----------------|----------------|----------------|----12101210----|
B|7-2-------------|-----5--79--79--|7-2-------------|1012--------1212|
G|----------------|--4-6---79--79--|7-2-------------|----------------|
D|----------------|----------------|----------------|----------------|
A|----------------|----------------|----------------|----------------|
E|----------------|----------------|----------------|----------------|

E|----------------|16--12----------|----------------||
B|1210----------12|--------12-10810|----14----------||
G|----------------|----------------|----------------||
D|----------------|----------------|----------------||
A|----------------|----------------|----------------||
E|----------------|----------------|----------------||

E|--------------------------------|--------------------------------|
B|----14--14----------14--14------|----14--14--14--14--------------|
G|--14--------------14------------|--14--------------------14------|
D|14--------------14--------------|14------------------------------|
A|--------------------------------|--------------------------------|
E|--------------------------------|--------------------------------|

E|--------------------------------|--------------------------------|
B|----14--14----------14--14------|----14--14---14-----------------|
G|--14--------------14------------|--14-------14--14-------14------|
D|14--------------14--------------|14---------------12-----14------|
A|--------------------------------|--------------------------------|
E|--------------------------------|--------------------------------|

E|--------------------------------|--------------------------------|
B|----16--16----------16--16------|----16--16--16--16--------------|
G|--16--------------16------------|--16--------------13----11------|
D|16--------------16--------------|16------------------------------|
A|--------------------------------|--------------------------------|
E|--------------------------------|--------------------------------|

E|--------------------------------|--------------------------------|
B|----17------16--14--------------|141214------141214------14--14--|
G|----------------------------14--|--------------------------------|
D|------------------------14------|--------------------------------|
A|--------------------------------|--------------------------------|
E|--------------------------------|--------------------------------|

E|----------------|----------------||
B|12--------------|----------------||
G|----------------|----------------||
D|----------------|----------------||
A|----------------|----------------||
E|----------------|----------------||

E|----------------|2-2-2-2-2-2-2-20|2-22222-2-2-2-0-|2-2-2-2-2-2-2-20|
B|----------------|2-2-2-2-2-2-2-20|3-33333-3-3-3-0-|2-2-2-2-2-2-2-20|
G|----------------|0-0-0-0-0-0-0-00|1-11111-1-1-1-0-|0-0-0-0-0-0-0-00|
D|----------------|2-2-2-2-2-2-2-2-|2-22222-2-2-2---|2-2-2-2-2-2-2-2-|
A|----------------|----------------|----------------|----------------|
E|----------------|----------------|----------------|----------------|
   So if you wake up with the sunrise.....

E|2-22222-2-2-2-0-|2-2-2-2-2-2-2-20|2-22222-2-0-2-0-|2-2-2-2-2-2-2---||
B|3-33333-3-3-3-0-|2-2-2-2-2-2-2-20|3-33333-3-0-3-0-|2-2-2-2-2-2-2---||
G|1-11111-1-1-1-0-|0-0-0-0-0-0-0-00|1-11111-1-0-1-0-|0-0-0-0-0-0-0---||
D|2-22222-2-2-2---|2-2-2-2-2-2-2-2-|2-22222-2---2---|2-2-2-2-2-2-2---||
A|----------------|----------------|----------------|----------------||
E|----------------|----------------|----------------|----------------||

E|----------------|----------------|----------------|----------------|
B|----------------|---------3------|----------------|---------3------|
G|----------------|---------2--2---|----------------|---------2--2---|
D|7-7775--5-555---|4-444----0--2---|7-7775--5-555---|4-444----0--2---|
A|0-000---0-000---|0-000-------0---|0-000---0-000---|0-000-------0---|
E|----------------|----------------|----------------|----------------|
  Catch the wind, see us spin.....

E|----------------|----------------|----------------|----------------|
B|----------------|------------4---|----------------|----------------|
G|--4---4---4---4-|--4---4-----4---|----------------|2---------------|
D|--4---4---4---4-|--4---4--2--4---|4---------------|2---------------|
A|2---2---0---0---|---------2------|4---------------|0---------------|
E|----------------|4---4----0------|2---------------|-------------3--|

E|----------------||
B|----------------||
G|----------------||
D|----------------||
A|----------------||
E|0---------------||

E|----------------|----------------|----------------|----------------|
B|---------99-----|----------------|----99----------|----------------|
G|---------99-----|77--77---99-9-9-|----99----------|77--77---99-9-XX|
D|99-------911----|77--79---99-9-9-|99--911---------|77--79---99-9-XX|
A|911-------------|79-------77-7-7-|91--------------|79-------77-7-XX|
E|----------------|----------------|----------------|----------------|

E|----------------|----------------|
B|----99-XXXXXXXXX|---------99-9---|
G|----99-XXXXXXXXX|77--77---99-9---| Play 7 times
D|99-X911XXXXXXXXX|77--79---99-9---| then fade
A|911X------------|79--------------|
E|----------------|-------0------00|


Текст, аккорды и табулатура для песни "What Is And What Should Never Be", исполняет "Led Zeppelin".
Используемые в песне аккорды можно найти в разделе Как брать аккорды. Аккорды для шестиструнной гитары. Другие песни можно найти на нашем сайте, воспользовавшись алфавитным указателем вверху страницы.


 
Ошибка в тексте? Выделите ошибку и нажмите Ctrl+Enter