-----------------------------------------------------------------------------
                 Led Zeppelin - Since I've Been Loving You
-----------------------------------------------------------------------------
                                                                                    
Transcribed by Victor Ochoa
Standard Tuning

 INTRO
E|---|-8------|-8-|-11-10-8-10-11-|-10-8---10-8-----|--------|-------|
B|-8-|---11-8-|---|---------------|------9------9-9-|-9-8----|-R-3-4-|
G|---|--------|---|---------------|-----------------|-----10-|-------|
D|---|--------|---|---------------|-----------------|--------|-------|
A|---|--------|---|---------------|-----------------|--------|-------|
E|---|--------|---|---------------|-----------------|--------|-------|

E|---------------|-----|-------------|---/3-|-3-3-|-(3)-------|
B|-6-3-4---------|-----|-4-3---3-4-6-|-/----|-----|-----16-18-|
G|-------5-3-----|---5-|-----5-------|------|-----|-----------|
D|-----------5-3-|-----|-------------|------|-----|-----------|
A|---------------|-6---|-------------|------|-----|-----------|
E|---------------|-----|-------------|------|-----|-----------|

E|-15-------15----------------|----|---------------15-------------|
B|----18-16----18-16-18-------|----|------18-16-18----18-16-18-17-|
G|----------------------17-15-|-17-|-(17)-------------------------|
D|----------------------------|----|------------------------------|
A|----------------------------|----|------------------------------|
E|----------------------------|----|------------------------------|

E|---------|--------|-8-----------------------|---------|---------|
B|------11-|-8----8-|---11-8------------------|-4-3-----|-4-3-----|
G|-(17)----|---10---|--------11-10-8----10----|-----5-3-|-----5-3-|
D|---------|--------|----------------10----10-|---------|---------|
A|---------|--------|-------------------------|---------|---------|
E|---------|--------|-------------------------|---------|---------|

E|-----------|------------8-8-|-8-------------|-15----------15-15-|
B|-----4-3---|-3-4-6-8-11-----|---------16-18-|----18-16-18-------|
G|-(3)-----5-|----------------|---15-17-------|-------------------|
D|-----------|----------------|---------------|-------------------|
A|-----------|----------------|---------------|-------------------|
E|-----------|----------------|---------------|-------------------|

E|-------------------------|------------------15-15-|-------|-------|
B|-------------------------|------------15-18-------|-------|----16-|
G|-15-------15-------------|---------15-------------|----15-|-17----|
D|----17-15----17-15-17-17-|-(17)-17----------------|-18----|-------|
A|-------------------------|------------------------|-------|-------|
E|-------------------------|------------------------|-------|-------|

E|----------|-15-15-|----15-|-------|
B|----16----|-------|-18----|-16----|
G|-17----15-|-------|-------|----17-|
D|----------|-------|-------|-------|
A|----------|-------|-------|-------|
E|----------|-------|-------|-------|

   TURNAROUND
   Cm/Eb  G/D  Cm/Eb Eb/Bb  D/A				Fm/Ab
E|-----------------------|----------------------------------------------||
B|-----------------------|----------------------------------------------||
G|---5----4----5---------|-----5------5b(7)--5-----------5----5b(7)--5--||
D|------------------5----|--4---------------------4---3-----------------||
A|---6----5----6---------|----------------------------------------------||
E|------------------6----|--5-------5-------------5---4-------4---------||

E|------------------------|------------------------|------------------------|
B|------------------------|------------------8---8-|------------------86-68-|
G|--------------------8-8-|----------------8-------|12------------------8---|
D|------------------------|6-----------------------|------------------------|
A|6-----------------------|------------------------|------------------------|
E|------------------------|------------------------|------------------------|

E|--------------787-------|------------------------|------------------------|
B|-----------------86---6-|------------------------|------------------------|
G|875----------------8-5-5|5-----------------------|------------------------|
D|------------------------|------------------6-8-10|10-8686--8686--8686---8-|
A|------------------------|------------------------|------------------------|
E|------------------------|------------------8-1011|11108-------------------|

E|------------------------|---------7--------------|------------------------|
B|------------------------|---6----8-6-6-----43----|------------------------|
G|5------------------7875-|578--85----8-85358--554-|7-7---------------------|
D|-----------------------8|------------------------|5-5-----------------5-5-|
A|------------------------|------------------------|--------------------5-5-|
E|------------------------|------------------------|------------------------|

E|------------------------|------------------------|------------------------|
B|------------------------|------------------------|----5-5---------5-5-----|
G|------------------------|5-----4-----5-----------|-5-----------5----------|
D|8---8-8---8-3---3-3---5-|------------------5-----|4--4------4-3--3------3-|
A|------------------------|6-----5-----6-----------|------------------------|
E|6---6-6---6-1---1-1---3-|------------------6-----|------------------------|

E|------------------------|-------------3--3--1---1|------------------------|
B|----4----3--3-5--5-3--5-|------------------------|--5----------5---5-4--4-|
G|---5-5----5----5--5-5--5|-5--5--5---5--5--5------|---5--65--65---5--5-5--5|
D|--5----5-------------5--|--6--6--6-6----6----6-6-|-5--5---5------------5--|
A|3-----------------------|---3-----3--------3--3--|3-----------------------|
E|------------------------|1-----1-----1-----------|------------------------|

E|------------------------|------------------------|------------------------|
B|-5--5--------5--5-------|---------1-----1-----1--|------------------------|
G|--5--5-65-65--5--555553-|3-------3-3---3-3---3-3-|------------------------|
D|---5--5--5--5--5--------|-------3---3-3---3-3---3|-3--------566---------3-|
A|-------------------6-655|3-----3-----3-----3-----|3-----------------------|
E|------------------------|------------------------|------------------------|

E|------------------------|------------------------|------------------------|
B|------------------------|------------------------|------------------------|
G|5-55-----555--5555555555|545454545454545454545454|7-7---------------------|
D|---------555--5555555555|------------------------|5-5-----------------5-5-|
A|---------6666-6666666666|656565656565656565656565|--------------------5-5-|
E|------------------------|------------------------|------------------------|

E|------------------------|------------------------|------------------------|
B|------------------------|------------------------|----5-5---------5-5-----|
G|------------------------|5-----4-----5-----------|-5-----------5----------|
D|8---8-8---8-3---3-3---5-|------------------5-----|4--4------4-3--3------3-|
A|------------------------|6-----5-----6-----------|------------------------|
E|6---6-6---6-1---1-1---3-|------------------6-----|------------------------|

  (Rhythm part under Guitar Solo)
E|------------------------|-------------3--3--1---1|------------------------|
B|----4----3--3-5--5-3--5-|------------------------|--5----------5---5-4--4-|
G|---5-5----5----5--5-5--5|-5--5--5---5--5--5------|---5--65--65---5--5-5--5|
D|--5----5-------------5--|--6--6--6-6----6----6-6-|-5--5---5------------5--|
A|3-----------------------|---3-----3--------3--3--|3-----------------------|
E|------------------------|1-----1-----1-----------|------------------------|

E|------------------------|------------------------|------------------------|
B|-5--5--------5--5-------|---------1-----1-----1--|------------------------|
G|--5--5-65-65--5--555553-|3-------3-3---3-3---3-3-|------------------------|
D|---5--5--5--5--5--------|-------3---3-3---3-3---3|-3--------566---------3-|
A|-------------------6-655|3-----3-----3-----3-----|3-----------------------|
E|------------------------|------------------------|------------------------|

E|------------------------|------------------------|------------------------|
B|------------------------|------------------------|------------------------|
G|5-55-----555--5555555555|545454545454545454545454|7-7---------------------|
D|---------555--5555555555|------------------------|5-5-----------------5-5-|
A|---------6666-6666666666|656565656565656565656565|--------------------5-5-|
E|------------------------|------------------------|------------------------|

E|------------------------|------------------------|------------------------|
B|------------------------|------------------------|----5-5---------5-5-----|
G|------------------------|5-----4-----5-----------|-5-----------5----------|
D|8---8-8---8-3---3-3---5-|------------------5-----|4--4------4-3--3------3-|
A|------------------------|6-----5-----6-----------|------------------------|
E|6---6-6---6-1---1-1---3-|------------------6-----|------------------------|

E|------------------------|------------------------|------------------------|
B|------------------------|------3-3---------------|5-----------------------|
G|------------------------|-----3----53------------|5-----------------------|
D|------------------------|----5-------55----------|5-----------------------|
A|------------------------|--------------31--------|------------------------|
E|------------------------|----------------33------|------------------------|

E|------------------------|------------------------|------------------------|
B|------------------------|------------------------|------------------------|
G|------------------------|------------------------|5-----4-----5-----------|
D|8-8-8-8-8-8-8-8-8-8-8-8-|7-7-7-7-7-7-7-7-7-7-7-7-|------------------5-----|
A|6-6-6-6-6-6-6-6-6-6-6-6-|5-5-5-5-5-5-5-5-5-5-5-5-|6-----5-----6-----------|
E|------------------------|------------------------|------------------6-----|

E|------------------------|
B|----5-5---------5-5-----|
G|-5-----------5----------|
D|4--4------4-3--3------3-|
A|------------------------|
E|------------------------|

E|------------------------|-------------3--3--1---1|------------------------|
B|----4----3--3-5--5-3--5-|------------------------|--5----------5---5-4--4-|
G|---5-5----5----5--5-5--5|-5--5--5---5--5--5------|---5--65--65---5--5-5--5|
D|--5----5-------------5--|--6--6--6-6----6----6-6-|-5--5---5------------5--|
A|3-----------------------|---3-----3--------3--3--|3-----------------------|
E|------------------------|1-----1-----1-----------|------------------------|

E|------------------------|------------------------|------------------------|
B|-5--5--------5--5-------|---------1-----1-----1--|------------------------|
G|--5--5-65-65--5--555553-|3-------3-3---3-3---3-3-|------------------------|
D|---5--5--5--5--5--------|-------3---3-3---3-3---3|-3--------566---------3-|
A|-------------------6-655|3-----3-----3-----3-----|3-----------------------|
E|------------------------|------------------------|------------------------|

E|------------------------|------------------------|------------------------|
B|------------------------|------------------------|------------------------|
G|5-55-----555--5555555555|545454545454545454545454|7-7---------------------|
D|---------555--5555555555|------------------------|5-5-----------------5-5-|
A|---------6666-6666666666|656565656565656565656565|--------------------5-5-|
E|------------------------|------------------------|------------------------|

E|------------------------|------------------------|------------------------|
B|------------------------|------------------------|----5-5---------5-5-----|
G|------------------------|5-----4-----5-----------|-5-----------5----------|
D|8---8-8---8-3---3-3---5-|------------------5-----|4--4------4-3--3------3-|
A|------------------------|6-----5-----6-----------|------------------------|
E|6---6-6---6-1---1-1---3-|------------------6-----|------------------------|

E|------------------------|------------------------|------------------------|
B|------------------------|------------------------|------------------------|
G|-2-----2------2---------|------------------------|5-----4-----5-----------|
D|-2---2------------------|8---8-8---8-3---3-3---5-|------------------5-----|
A|---0----00--0-----------|------------------------|6-----5-----6-----------|
E|------------------------|6---6-6---6-1---1-1---3-|------------------6-----|

E|------------------------|------------------------|------------------------|
B|----5-5---------5-5-----|9--------------9--------|----9-----9-----9-----9-|
G|-5-----------5----------|10-------------10--10---|------------------------|
D|4--4------4-3--3------3-|---------------------8--|------------------------|
A|------------------------|----------------------10|------------------------|
E|------------------------|------------------------|------------------------|

E|------------------------|
B|----53------------------|
G|------------------------|
D|------------------------|
A|------------------------|
E|------------------------|


GUITAR SOLO

E|------------------------------------------------|
B|----------------------------------------5-------|
G|-----------------------------------------33--3--|
D|--------------------------------------5-5-553331|
A|------------------------------------------------|
E|------------------------------------------------|

E|------------------------------------------------|
B|1411--------------------------------------------|
G|----44------------------------------------------|
D|----5-55553322----2---32-235----55---3---2------|
A|------------3-32351333-33-----------------------|
E|------------------------------------------------|

E|------------------------------------------------|
B|----5-3---3-------------------------------------|
G|--------5--5------------------------------------|
D|3-56--------33----532---------------------------|
A|---------------------310--10-0------------------|
E|------------------------1---1-1----1-------35310|

E|------------------------------------------------|
B|--------------5--------------------------5---6-5|
G|---------------3---------------------5----------|
D|-------------5--5-532-----2---------------------|
A|---------------------3-3------------------------|
E|0---0---0---------------------------------------|

E|-3---3---3-----3-------3-3---3-------3-----3----|
B|----------65-6---5---6-------------6--65-6---5--|
G|------------------------------------------------|
D|------------------------------------------------|
A|------------------------------------------------|
E|------------------------------------------------|

E|------------------------------------------------|
B|------------------------------------------------|
G|---5-3--------3--------------9-------------9----|
D|---------7--56-5-6-----6-8-10-10-------10----10-|
A|----------7-------77----------------------------|
E|------------------------------------------------|

E|---3-------3-------3-----3---3---3---3-1-3-03---|
B|-5---5--5----5--5---5--------------6------------|
G|-------5-------5-------5------------------------|
D|------------------------------------------------|
A|------------------------------------------------|
E|------------------------------------------------|

E|------------------------------------------------|
B|-5--------------------------1411----------------|
G|--5-----------------533---------44--------------|
D|------------------5-5-553532-----5-55553322-----|
A|----------------------------------------3-323513|
E|------------------------------------------------|

E|------------------------------------------------|
B|------------------------------------------------|
G|-----------------------------------------------3|
D|--3-2-----235----5---3-2455----------5--2-2--55-|
A|3---33-----------------------------------3------|
E|------------------------------------------------|

E|-----1-3-------1---1-3-1------------------------|
B|---3-------------3-------35-3-------------------|
G|-3----------------------------3-3---------2--3--|
D|------------------------------------------------|
A|------------------------------------------------|
E|------------------------------------------------|

E|----------------------|
B|----5-5--8-8-8-6---8--|
G|5----5-5--------------|
D|----------------------|
A|----------------------|
E|----------------------|

E|------------------------------------------------|
B|4------------------------------------------5-6-5|
G|--5----------------53--------------------5------|
D|---------------5-5---55-32----------------------|
A|---------------------------3-3------------------|
E|------------------------------------------------|

E|-3---3---------310-11-3---3-----3-3310----------|
B|------------------------------------------------|
G|------------------------------------------------|
D|------------------------------------------------|
A|------------------------------------------------|
E|------------------------------------------------|

E|----------------------|
B|-5--------------------|
G|----------------------|
D|----------------------|
A|----------------------|
E|----------------------|


Текст, аккорды и табулатура для песни "Since Ive Been Loving You", исполняет "Led Zeppelin".
Используемые в песне аккорды можно найти в разделе Как брать аккорды. Аккорды для шестиструнной гитары. Другие песни можно найти на нашем сайте, воспользовавшись алфавитным указателем вверху страницы.


 
Ошибка в тексте? Выделите ошибку и нажмите Ctrl+Enter