http://geocities.com/larsfrederiksenandthebastards/
Punk band outa california

verse
|-------------------------------------------------------------|
|-------------------------------------------------------------|
|-------------------3--3-0---------------------5--5-0---------|
|-----3--3-3-3-3-3-0------3--3-0-0--0-0-0-0-0-0------3--3-0---|


chorus(bass solo)x2
|--------------------------------------------------------------------------|
|------------------------10--10-0-----------------------12--12-0-----------|(back
|----10--10-10-10-10-10-0--------10--10-0-7--7-7-7-7-7-0--------10--10-0---|to verse)
|--------------------------------------------------------------------------|


Текст, аккорды и табулатура для песни "To Have And To Have Not", исполняет "Lars Frederiksen And The Bastards".
Используемые в песне аккорды можно найти в разделе Как брать аккорды. Аккорды для шестиструнной гитары. Другие песни можно найти на нашем сайте, воспользовавшись алфавитным указателем вверху страницы.


 
Ошибка в тексте? Выделите ошибку и нажмите Ctrl+Enter