Это соло начинается приблизительно с 3-й минуты песни

E||----6-5-------8-6-5--------------------
B||-3-------3-4---------6p8---------------
G----5-3----------
D--------5-3-5-8--
A-----------------
E-----------------


E||-10-8-6-5-6-8-11-8-10-6-8-5-6-2-2p3----
B-----------------
G-----------------
D-----------------
A-----------------
E-----------------


E||-2-3-5---------------------------------
B||-------1-3-4---------------------------
G|--2-3-5---------------------
D|--------4-5-7-8-10-8-7-3-3p5
A-----------------
E-----------------


E-----------------
B-----------------
G-----------------
D-----------------
A||-8-5-4-3-1----1-3-5--------------------
E|-3--------------------------


Текст, аккорды и табулатура для песни "Эта девочка", исполняет "Ляпис Трубецкой".
Используемые в песне аккорды можно найти в разделе Как брать аккорды. Аккорды для шестиструнной гитары. Другие песни можно найти на нашем сайте, воспользовавшись алфавитным указателем вверху страницы.


 
Ошибка в тексте? Выделите ошибку и нажмите Ctrl+Enter