----------------------------------------------------------------------
			 TODAY - Lagwagon
----------------------------------------------------------------------


Intro:

e|------------------------------------------------------|
B|------------------------------------------------------|
G|------------------------------------------------------|
D|-2-2-2-2-2-2-2-2-2-2-2-2-2-2-2--6-6-6-6-6-6-6-6-6-6-6-|
A|-2-2-2-2-2-2-2-2-2-2-2-2-2-2-2--6-6-6-6-6-6-6-6-6-6-6-|
E|-0-0-0-0-0-0-0-0-0-0-0-0-0-0-0--4-4-4-4-4-4-4-4-4-4-4-|

e|------------------------------------------------------|
B|------------------------------------------------------|
G|------------------------------------------------------|
D|-2-2-2-2-2-2-2-2-2-2-2-2-2-2-2--4-4-4-4-4-4-4-4-4-4-4-|
A|-2-2-2-2-2-2-2-2-2-2-2-2-2-2-2--4-4-4-4-4-4-4-4-4-4-4-|
E|-0-0-0-0-0-0-0-0-0-0-0-0-0-0-0--2-2-2-2-2-2-2-2-2-2-2-|

e||------------------------------------------------|
B||------------------------------------------------|
G||*-8-8-8-8-8-9-9-9-8-8-6--8-8-8-8-8-9-9-9-8-8-6--|
D||--9-9-9-9-9-9-9-9-9-9-6--6-6-6-6-6-6-6-6-6-6-6--|
A||*-----------------------------------------------|
E||------------------------------------------------|

e|--------------------------------------------------||
B|--------------------------------------------------||
G|-------------------------------------------------*||
D|-6-6-6-6-6-8-8-8-9-9-9--8-8-8-8-8-9-9-9-11-11-11--||
A|-7-7-7-7-7-7-7-7-7-7-7--9-9-9-9-9-9-9-9--9--9--9-*||
E|--------------------------------------------------||

Verse 1: (I'm just giving you an idea, you get the rhythem)
e|-x-7-7-7-7-7-7-7-7--x-4-4-4-4-4-4-4---------------------7-7-7-7-7-7-7-7-7|
B|-x-7-7-7-7-7-7-7-7--x-4-4-4-4-4-4-4-x-5-5-5-5-5-5-5-5-x-7-7-7-7-7-7-7-7-7|
G|---8-8-8-8-8-8-8-8----5-5-5-5-5-5-5-x-4-4-4-4-4-4-4-4-x-8-8-8-8-8-8-8-8-8|
D|-------------------------------------------------------------------------|
A|-------------------------------------------------------------------------|
E|-------------------------------------------------------------------------|

e|-x-7-7-7-7-7-7-7-7-x-4-4-4-4-4-4-4-------------------------------------|
B|-x-7-7-7-7-7-7-7-7-x-4-4-4-4-4-4-4-x-5-5-5-5-5-5-5-5-------------------|
G|---8-8-8-8-8-8-8-8---5-5-5-5-5-5-5-x-4-4-4-4-4-4-4-4-------------------|
D|-----------------------------------------------------2-2-2-2-2-2-2-2-2-|
A|-----------------------------------------------------2-2-2-2-2-2-2-2-2-|
E|-----------------------------------------------------0-0-0-0-0-0-0-0-0-|

Pre-Chorus:
e|------------------------------------------------------------------------|
B|------------------------------------------------------------------------|
G|-4-4-4-4-4-4-------------4-4-4-4-4-4-8-8-8-8-8-8-8-8--6-6-6-6-6-6-6-6-6-|
D|-4-4-4-4-4-4-6-6-6-6-6-6-4-4-4-4-4-4-8-8-8-8-8-8-8-8--6-6-6-6-6-6-6-6-6-|
A|-2-2-2-2-2-2-6-6-6-6-6-6-2-2-2-2-2-2-6-6-6-6-6-6-6-6--4-4-4-4-4-4-4-4-4-|
E|-------------4-4-4-4-4-4------------------------------------------------|

e|----------------------|
B|----------------------|
G|-9-9-9-9-9-9-9-9-9-9--|
D|-9-9-9-9-9-9-9-9-9-9--|
A|-7-7-7-7-7-7-7-7-7-7--|
E|----------------------|


Verse 2:
e|-x-7-7-7-7-7-7-7-7--x-4-4-4-4-4-4-4--------------------------------------|
B|-x-7-7-7-7-7-7-7-7--x-4-4-4-4-4-4-4-x-5-5-5-5-5-5-5-5-x-5-5-5-5-5-5-5-5-5|
G|---8-8-8-8-8-8-8-8----5-5-5-5-5-5-5-x-4-4-4-4-4-4-4-4-x-4-4-4-4-4-4-4-4-4|
D|-------------------------------------------------------------------------|
A|-------------------------------------------------------------------------|
E|-------------------------------------------------------------------------|

e|-x-7-7-7-7-7-7-7-7-x-4-4-4-4-4-4-4-------------------------------------|
B|-x-7-7-7-7-7-7-7-7-x-4-4-4-4-4-4-4-x-5-5-5-5-5-5-5-5-------------------|
G|---8-8-8-8-8-8-8-8---5-5-5-5-5-5-5-x-4-4-4-4-4-4-4-4-------------------|
D|-----------------------------------------------------2-2-2-2-2-2-2-2-2-|
A|-----------------------------------------------------2-2-2-2-2-2-2-2-2-|
E|-----------------------------------------------------0-0-0-0-0-0-0-0-0-|

Pre-Chorus 2:
e|--------------------------------------------------------------------------|
B|--------------------------------------------------------------------------|
G|-4-4-4-4-4-4-------------4-4-4-4-4-4-8-8-8-8-8-8-8-8--6-6-6-6-6-9-8-6-4-4-|
D|-4-4-4-4-4-4-6-6-6-6-6-6-4-4-4-4-4-4-8-8-8-8-8-8-8-8--6-6-6-6-6----------2|
A|-2-2-2-2-2-2-6-6-6-6-6-6-2-2-2-2-2-2-6-6-6-6-6-6-6-6--4-4-4-4-4-7-6-4-2-22|
E|-------------4-4-4-4-4-4-------------------------------------------------0|

Chorus:
e|---------------------------------------------------------|
B|---------------------------------------------------------|
G|---------------------------------------------------------|
D|-6-6-6-6-6-6-6-6-6-6-6-6-6-6-2-2-2-2-2-2-2-2-2-2-2-2-2-2-|
A|-6-6-6-6-6-6-6-6-6-6-6-6-6-6-2-2-2-2-2-2-2-2-2-2-2-2-2-2-|
E|-4-4-4-4-4-4-4-4-4-4-4-4-4-4-0-0-0-0-0-0-0-0-0-0-0-0-0-0-|


e|---------------------------------------------------------|
B|---------------------------------------------------------|
G|-----------------------------2-2-2-2-2-2-2-2-2-2-2-2-2-2-|
D|-6-6-6-6-6-6-6-6-6-6-6-6-6-6-2-2-2-2-2-2-2-2-2-2-2-2-2-2-|
A|-6-6-6-6-6-6-6-6-6-6-6-6-6-6-0-0-0-0-0-0-0-0-0-0-0-0-0-0-|
E|-4-4-4-4-4-4-4-4-4-4-4-4-4-4-----------------------------|

e|--------------------------------------------------------------------------|
B|-------------------------------------------Gtr.-2-replace-last-chord-with:|
G|------------------------------------------------11~~----------------------|
D|-8-8-8-8-8-8-6-6-6-6-6-6-9-9-9-9-9-9--4~~-------11~~----------------------|
A|-6-6-6-6-6-6-4-4-4-4-4-4-7-7-7-7-7-7--4~~--------9~~----------------------|
E|--------------------------------------2~~---------------------------------|


Verse 3:
e|-x-7-7-7-7-7-7-7-7--x-4-4-4-4-4-4-4--------------------------------------|
B|-x-7-7-7-7-7-7-7-7--x-4-4-4-4-4-4-4-x-5-5-5-5-5-5-5-5-x-7-7-7-7-7-7-7-7-7|
G|---8-8-8-8-8-8-8-8----5-5-5-5-5-5-5-x-4-4-4-4-4-4-4-4-x-6-6-6-6-6-6-6-6-6|
D|-------------------------------------------------------------------------|
A|-------------------------------------------------------------------------|
E|-------------------------------------------------------------------------|

e|-x-7-7-7-7-7-7-7-7--x-4-4-4-4-4-4-4--------------------------------------|
B|-x-7-7-7-7-7-7-7-7--x-4-4-4-4-4-4-4-x-5-5-5-5-5-5-5-5-x-5-5-5-5-5-5-5-5-5|
G|---8-8-8-8-8-8-8-8----5-5-5-5-5-5-5-x-4-4-4-4-4-4-4-4-x-4-4-4-4-4-4-4-4-4|
D|-------------------------------------------------------------------------|
A|-------------------------------------------------------------------------|
E|-------------------------------------------------------------------------|

e|--7~~~~~~---|
B|--7~~~~~~---|
G|--8~~~~~~---|
D|--9~~~~~~---|
A|--9~~~~~~---|
E|--7~~~~~~---|

----------------------------------------------------------------------


Текст, аккорды и табулатура для песни "Today", исполняет "Lagwagon".
Используемые в песне аккорды можно найти в разделе Как брать аккорды. Аккорды для шестиструнной гитары. Другие песни можно найти на нашем сайте, воспользовавшись алфавитным указателем вверху страницы.


 
Ошибка в тексте? Выделите ошибку и нажмите Ctrl+Enter