T1: Mark Norris, [email protected], Lagwagon, Leave The Light On,
10/12/98

S1: Some of the lines in this tab are buggered up because of the feild
width., Song: Leave The Light On
Band: Lagwagon
Album: Let's Talk About Feelings
Tabbed By: Mark Norris ([email protected])

INTRO/VERSE

Guitar One
|---------------------------------------------------------------------------
|---------------------------------------------------------------------------
|---------------------------------------------------------------------------
|-----------------------------------------------4-4--4-4-4--4---------------
|-5-5--5-5-5--5--4-4--4--5-5-5---4-4--4-4-4--4--2-2--2-2-2--2----5---4-4--4-
|-3-3--3-3-3--3--5-5--5--6-6-6---2-2--2-2-2--2-------------------3---5-6--2-

|----------------------------------------------------------------------------
|----------------------------------------------------------------------------
|-4--6-----------------------------------------------------------------------
|-x--x----------------------------------7-7--7-7-7--7-----------------4-4--4-
|-2--4----5-5--5-5-5--5--4-4--4-4-4--4--5-5--5-5-5--5--4-4--4-4-4--4--2-2--2-
|---------3-3--3-3-3--3--5-5--5-5-5--5-----------------2-2--2-2-2--2---------

|----------------------------------------------|
|-------------------------/8~------------------|
|----------------------------------------------|
|-4-4--4--2-2--2-2-2--2------------------------|
|-2-2--2--0-0--0-0-0--0-------------4--4--4--4-|
|-----------------------------------5--5--5--5-|

Guitar 2
|----------------------------------------------------------------------------
|----------------------------------------------------------------------------
|----------------------------------------------------------------------------
|-----------------------------------------------4-4--4-4-4--4----------------
|-5-5--5-5-5--5--4-4--4--5-5-5---4-4--4-4-4--4--2-2--2-2-2--2----5---4-4--4--
|-3-3--3-3-3--3--5-5--5--6-6-6---2-2--2-2-2--2-------------------3---5-6--2--


|----------------------------------------------------------------------------
|----------------------------------------------------------------------------
|-4--6-----------------------------------------------------------------------
|-x--x----------------------------------7-7--7-7-7--7-----------------4-4--4-
|-2--4----5-5--5-5-5--5--4-4--4-4-4--4--5-5--5-5-5--5--4-4--4-4-4--4--2-2--2-
|---------3-3--3-3-3--3--5-5--5-5-5--5-----------------2-2--2-2-2--2---------

|-----------------------------------9----9---9---9-|
|-------------------------/8~------10---10--10--10-|
|-------------------------------7---9----9---9---9-|
|-4-4--4--2-2--2-2-2--2----------------------------|
|-2-2--2--0-0--0-0-0--0----------------------------|
|--------------------------------------------------|



Solo

Guitar 1 (Harmonics are in brackets, unnatutural harmonics i think they
are,
          the type where you hit the string with your thumb after picking it)
|----------------------------------------------------------------------------
|----------------------------------------------------------------------------
|---------------------------------------------0-2-4-3--6--7---6p5p0-(0)------
|--------------4-5--4h5p4h5p4h5p4h5p4h5--4-2-------------------------------------
|-9/------5-7----------------------------------------------------------------
|----------------------------------------------------------------------------

|-(6)-----------------------------------|
|---------------------------------------|
|-------4~---4-5-7--DON'T KNOW THE REST-|
|---------------------------------------|
|---------------------------------------|
|---------------------------------------|


Guitar 2 (Rhythm behind solo)
|------------------------------------------------|
|------------------------------------------------|
|------------------------------------------------|
|---------------------4----------------4--4--4-2-|
|-5~----5---4--5--4---2---5---4--5--4--2--2--2-0-|
|-------3---5--6--2-------3---5--6--2------------|



POST SOLO INTERLUDE (With sampling and Guitar 1 holding the harmonic)

Guitar 2
|--------------------------------------------------------------------
|--------------------------------------------------------------------
|--------------------------------------------------------------------
|----------------------------------------------------4-4-4-4-4-4-4-4-
|5-5-5-5-5-5-5-5--7-7-7-7--9-9-9-9--4-4-4-4-4-4-4-4--2-2-2-2-2-2-2-2-
|3-3-3-3-3-3-3-3--5-5-5-5--7-7-7-7--2-2-2-2-2-2-2-2------------------
 |-------------------------------P.M--------------------------------|


|--------------------------------------------------------------------
|--------------------------------------------------------------------
|--------------------------------------------------------------------
|----------------------------------------------------4-4-4-4-4-4-4-4-
|5-5-5-5-5-5-5-5--7-7-7-7--9-9-9-9--4-4-4-4-4-4-4-4--2-2-2-2-2-2-2-2-
|3-3-3-3-3-3-3-3--5-5-5-5--7-7-7-7--2-2-2-2-2-2-2-2------------------
 |-------------------------------P.M--------------------------------|

|------------------------------------------------------------------------
|------------------------------------------------------------------------
|------------------------------------------------------------------------
|----------5-5-5-5--4-4-4-4--2-2-2-2-----------4-4-4-4--2-2-2-2--0-0-0-0-
|-5-5-5-5------------------------------4-4-4-4---------------------------
|-3-3-3-3------------------------------2-2-2-2---------------------------

|-------------------------------P.M------------------------------------|

|------------------------------------------------------------------------|
|------------------------------------------------------------------------|
|------------------------------------------------------------------------|
|----------5-5-5-5--4-4-4-4--2-2-2-2-----------4-4-4-4--2-2-2-2--0-0-0-0-|
|-5-5-5-5------------------------------4-4-4-4---------------------------|
|-3-3-3-3------------------------------2-2-2-2---------------------------|
 |----------------P.M------------------|

                                               ^------------------------^
Guitar 1 (At the end of th Post Solo Interlude i.e as above)
|---------------------------|
|---------------------------|
|-6-6-6-6--7-7-7-7--4-4-4-4-|
|-x-x-x-x--x-x-x-x--x-x-x-x-|
|-4-4-4-4--5-5-5-5--2-2-2-2-|
|---------------------------|


OUTRO 

Guitar 1
|---------------------------------------------------------
|---------------------------------------------------------
|--------7-7-7--6-6-6--9-9-9----------6-6-6--7-7-7--4-4-4-
|--------x-x-x--x-x-x--x-x-x----------x-x-x--x-x-x--x-x-x-
|-5-5-5--5-5-5--4-4-4--7-7-7---4-4-4--4-4-4--5-5-5--2-2-2-
|-3-3-3------------------------2-2-2----------------------

|---------------------------------------------------------
|---------------------------------------------------------
|--------7-7-7--6-6-6--9-9-9----------6-6-6--7-7-7--4-4-4-
|--------x-x-x--x-x-x--x-x-x----------x-x-x--x-x-x--x-x-x-
|-5-5-5--5-5-5--4-4-4--7-7-7---4-4-4--4-4-4--5-5-5--2-2-2-
|-3-3-3------------------------2-2-2----------------------

|---------------------------------------------------------------------------
|---------------------------------------------------------------------------
|--------12-12-12--11-11-11--9-9-9------------------------------------------
|---------x--x--x---x--x--x--x-x-x---7-7--7-7-7--7-----------------4-4--4-4---
|-5-5-5--10-10-10---9--9--9--7-7-7---5-5--5-5-5--5--4-4--4-4-4--4--2-2--2-2--------------
|-3-3-3---------------------------------------------2-2--2-2-2--2-----------

|----------------------------|
|----------------------------|
|----------------------------|
|-4--4--2-2--2-2-2--2--7~--7-|
|-2--2--0-0--0-0-0--0--5~--5-|
|----------------------------|


Guitar 2
|-----------------------------------------------------------------
|-----------------------------------------------------------------
|--------12-12-12--11-11-11--9-9-9---------11-11-11--9-9-9--7-7-7-
|---------x--x--x---x--x--x--x-x-x----------x--x--x--x-x-x--x-x-x-
|-5-5-5--10-10-10---9--9--9--7-7-7---4-4-4--9--9--9--7-7-7--5-5-5-
|-3-3-3------------------------------2-2-2------------------------

|-----------------------------------------------------------------
|-----------------------------------------------------------------
|--------12-12-12--11-11-11--9-9-9---------11-11-11--9-9-9--7-7-7-
|---------x--x--x---x--x--x--x-x-x----------x--x--x--x-x-x--x-x-x-
|-5-5-5--10-10-10---9--9--9--7-7-7---4-4-4--9--9--9--7-7-7--5-5-5-
|-3-3-3------------------------------2-2-2------------------------

|------------------------------------------------------------------
|------------------------------------------------------------------
|--------12-12-12--11-11-11--9-9-9---7-7-7--11-11-11--9-9-9--7-7-7-
|---------x--x--x---x--x--x--x-x-x---x-x-x---x--x--x--x-x-x--x-x-x-
|-5-5-5--10-10-10---9--9--9--7-7-7---5-5-5---9--9--9--7-7-7--5-5-5-
|-3-3-3------------------------------------------------------------

|--------------------------------------------|
|--------------------------------------------|
|-11-11--11-11-11--11---6-6--6-6-6--6--7---7-|
|--x--x---x--x--x---x---x-x--x-x-x--x--x---x-|
|--9--9---9--9--9---9---4-4--4-4-4--4--5~--5-|
|--------------------------------------------|




Текст, аккорды и табулатура для песни "Leave The Light On", исполняет "Lagwagon".
Используемые в песне аккорды можно найти в разделе Как брать аккорды. Аккорды для шестиструнной гитары. Другие песни можно найти на нашем сайте, воспользовавшись алфавитным указателем вверху страницы.


 
Ошибка в тексте? Выделите ошибку и нажмите Ctrl+Enter