intro:
e-|-------------------------------------------------------------------------
B-|-------------------------------------------------------------------------
G-|---------8-8-8-8-9-9-9-9--------------------------8-8-8-8-9-9-9-9--------
D-|-9-9-9-9-8-8-8-8-9-9-9-9---8-9-8--8-8-9-8-9-9-9-9-8-8-8-8-9-9-9-9---8-9--
A-|-9-9-9-9-6-6-6-6-7-7-7-7-9----------------9-9-9-9-6-6-6-6-7-7-7-7-9------
E-|-7-7-7-7----------------------------------7-7-7-7------------------------

e-|-------------------------------------------------------------------------
B-|-------------------------------------------------------------------------
G-|---------------------8-8-8-8-9-9-9-9--------------------------8-8-8-8----
D-|-8--8-9-11-8-9-9-9-9-8-8-8-8-9-9-9-9---8-9-8--8-8-9-8-9-9-9-9-8-8-8-8----
A-|-------------9-9-9-9-6-6-6-6-7-7-7-7-9----------------9-9-9-9-6-6-6-6----
E-|-------------7-7-7-7----------------------------------7-7-7-7------------

e-|--------------------------|
B-|--------------------------|
G-|-9-9-9-9------------------|
D-|-9-9-9-9---8-9-8--8-8-9-8-|
A-|-7-7-7-7-9----------------|
E-|--------------------------|

verse:
e-|-------------------------------------------------------------------------
B-|-------------------------------------------------------------------------
G-|-9-x-x-x-----------------9-x-x-x-----------------9-x-x-x-----------------
D-|-9-x-x-x---8-9-8-8-8-9-8-9-x-x-x---8-9-8-8-8-9-8-9-x-x-x---8-9-8-8-8-9-8-
A-|-7-x-x-x-9---------------7-x-x-x-9---------------7-x-x-x-9---------------
E-|-------------------------------------------------------------------------

e-|-------------------------------------------------------------------------
B-|-------------------------------------------------------------------------
G-|-16-16-16-16-13-13-13-13-9-x-x-x-----------------9-x-x-x-----------------
D-|-xx-xx-xx-xx-xx-xx-xx-xx-9-x-x-x---8-9-8-8-8-9-8-9-x-x-x---8-9-8-8-8-9-8-
A-|-14-14-14-14-11-11-11-11-7-x-x-x-9---------------7-x-x-x-9---------------
E-|-------------------------

e-|-------------------------------------------------|
B-|-------------------------------------------------|
G-|-9-x-x-x-------------------------9-9-8-8-6-6-3-4-|
D-|-9-x-x-x---8-9-8-8-8-9-8-9-9-9-9-x-x-x-x-x-x-x-x-|
A-|-7-x-x-x-9---------------9-9-9-9-7-7-6-6-4-4-1-2-|
E-|-------------------------7-7-7-7-----------------|

pre-chorus:
e-|-------------------------------------------------------------------------
B-|-------------------------------------------------------------------------
G-|-4-4-4-4-----------------8-8-8-8-9-9-9-9-4-4-4-4-------------8-8-6-6-3-4-
D-|-x-x-x-x-4-4-4-4-6-6-6-6-8-8-8-8-9-9-9-9-4-4-4-4-4-x-x-x-x-x-x-x-x-x-x-x-
A-|-2-2-2-2-4-4-4-4-6-6-6-6-6-6-6-6-7-7-7-7-2-2-2-2-4-x-x-x-x-x-6-6-4-4-1-2-
E-|---------2-2-2-2-4-4-4-4-------------------------2-x-x-x-x-x-------------

e-|-----------------------------------------------------------|
B-|-----------------------------------------------------------|
G-|-4-4-4-----------------8-8-8-8-9-9-9-9-4-4-4-4-------------|
D-|-x-x-x-4-4-4-4-6-6-6-6-8-8-8-8-9-9-9-9-4-4-4-4-2-2-2-2-4-4-|
A-|-2-2-2-4-4-4-4-6-6-6-6-6-6-6-6-7-7-7-7-2-2-2-2-2-2-2-2-4-4-|
E-|-------2-2-2-2-4-4-4-4-------------------------0-0-0-0-2-2-|

chorus:
e-|-------------------------------------------------------------------------
B-|-------------------------------------------------------------------------
G-|---------8-8-8-8-9-9-9-9-9-9-9-9-4-4-4-4-3-3-3-3-4-4-4-6-4-4-4-4-6-6-6-6-
D-|-9-9-9-9-8-8-8-8-9-9-9-9-9-9-9-9-x-x-x-x-x-x-x-x-x-x-x-x-x-x-x-x-x-x-x-x-
A-|-9-9-9-9-6-6-6-6-7-7-7-7-7-7-7-7-2-2-2-2-1-1-1-1-2-2-2-4-2-2-2-2-4-4-4-4-
E-|-7-7-7-7-----------------------------------------------------------------

e-|---------------|
B-|---------------|
G-|-8-8-8-8-9-9-9-|
D-|-x-x-x-x-x-x-x-|
A-|-6-6-6-6-7-7-7-|
E-|---------------|

second pre-chorus:
e-|-------------------------------------------------------------------------
B-|-------------------------------------------------------------------------
G-|-4-4-4-4-----------------8-8-8-8-9-9-9-9-4-4-4-4-------------------------
D-|-4-4-4-4-4-4-4-4-6-6-6-6-8-8-8-8-9-9-9-9-4-4-4-4-2-2-2-2-4-4-4-4---------
A-|-2-2-2-2-4-4-4-4-6-6-6-6-6-6-6-6-7-7-7-7-2-2-2-2-2-2-2-2-4-4-4-4---------
E-|---------2-2-2-2-4-4-4-4-------------------------0-0-0-0-2-2-2-2---------

e-|-------------------------------------------------------------|
B-|-------------------------------------------------------------|
G-|-4-4-4-4---------6-6-6-6-8-8-8-8-9-9-9-9-4-4-4-4-------------|
D-|-4-4-4-4-4-4-4-4-x-x-x-x-x-x-x-x-x-x-x-x-x-x-x-x-2-2-2-2-4---|
A-|-2-2-2-2-4-4-4-4-4-4-4-4-6-6-6-6-7-7-7-7-2-2-2-2-2-2-2-2-4---|
E-|---------2-2-2-2---------------------------------0-0-0-0-2---|


Текст, аккорды и табулатура для песни "Know It All", исполняет "Lagwagon".
Используемые в песне аккорды можно найти в разделе Как брать аккорды. Аккорды для шестиструнной гитары. Другие песни можно найти на нашем сайте, воспользовавшись алфавитным указателем вверху страницы.


 
Ошибка в тексте? Выделите ошибку и нажмите Ctrl+Enter