DEMENTED RUMORS - Lagwagon
-------------------------------------------------------------------------------

questions,corrections,comments or anywhing else,
e-mail :[email protected]

[email protected]------------------------------|
B-|--------------------------------------------------------------------------------------------|
G-|--6666-9-8-6-666-9-8-6------9-8-------9-4-6------9-8-------9-8-7-6-666-9-8-6-666-9-8-7-6----|
D-|--6666-9-8-6-666-9-8-6-7777-9-8-7-777-9-4-6-6666-9-8-6-666-9-8-7-6-666-9-8-6-666-9-8-7-6----|
A-|--4444-7-6-4-444-7-6-4-7777-7-6-7-777-7-6-4-6666-7-6-6-666-7-6-5-4-444-7-6-4-444-7-6-5-4----|
E-|-----------------------5555-----5-555-------4444-----4-444----------------------------------|

e-|-------4------------------4------------------4-5-4-----------------------------|
B-|---------5------------------5----------------------5-4-------------------------|
G-|-----6-----6---6--------6-----6---6--------6-----------6-4-------------(6)-----|
D-|---6---------6--------6---------6--------6------------------6-4--------(6)-----|
A-|-4------------------0------------------4------------------------7-6----(4)-----|
E-|-------------------------------------------------------------------------------|

e-|---------------------|
B-|---------------------|
G-|---6-----6-----6-----|
D-|-----6-----6---------|x8
A-|-4-----4-----4-------|
E-|---------------------|

e-|----------------------------------------------|
B-|----------------------------------------------|
G-|-999-8-88-7-777-6-666-99-8-88-9-8-6-66--------|
D-|-999-8-88-7-777-6-666-99-8-88-9-8-6-66--------|
A-|-777-6-66-5-555-4-444-77-6-66-7-6-4-44--------|
E-|----------------------------------------------|

e-|----------------------------------------------|
B-|----------------------------------------------|
G-|-999-8-88-7-777-6-666-99-8-88-44-5-6----------|
D-|-999-8-88-7-777-6-666-99-8-88-44-5-6----------|
A-|-777-6-66-5-555-4-444-77-6-66-22-3-4----------|
E-|----------------------------------------------|

e-|---------------------|
B-|---------------------|
G-|---6-----6-----6-----|
D-|-----6-----6---------|x8
A-|-4-----4-----4-------|
E-|---------------------|

e-|----------------------------------------------|
B-|----------------------------------------------|
G-|-999-8-88-7-777-6-666-99-8-88-9-8-6-66--------|
D-|-999-8-88-7-777-6-666-99-8-88-9-8-6-66--------|
A-|-777-6-66-5-555-4-444-77-6-66-7-6-4-44--------|
E-|----------------------------------------------|

e-|----------------------------------------------|
B-|----------------------------------------------|
G-|-999-8-88-7-777-6-666-99-8-88-44-5------------|
D-|-999-8-88-7-777-6-666-99-8-88-44-5------------|
A-|-777-6-66-5-555-4-444-77-6-66-22-3------------|
E-|----------------------------------------------|

e-|------------------------------------------------|
B-|------------------------------------------------|
G-|-6-66-6-689-99-9-91113-1313-13-111314-14-141310-|
D-|-6-66-6-689-99-9-91113-1313-13-111314-14-141310-|x2
A-|-4-44-4-467-77-7-79-11-1111-11-9-1112-12-12119--|
E-|------------------------------------------------|

SOLO:
e-|--------------------------------------------------->
B-|-------5h7p5-8b-----7/9--9-9-9-10-9-9-12-9-9-10-9-->
G-|-6------------------------------------------------->
D-|--------------------------------------------------->
A-|--------------------------------------------------->
E-|--------------------------------------------------->

e-|-12p11----12--------------------------------------->
B-|-------14----14-12-14-12----12--------12b------12b->
G-|-------------------------14----14-13--------------->
D-|--------------------------------------------------->
A-|--------------------------------------------------->
E-|--------------------------------------------------->

e-|----------------------->
B-|-10h12-10h12-10h12--9-->
G-|----------------------->
D-|----------------------->
A-|----------------------->
E-|----------------------->

e-|------------------------------------------------------------|
B-|-12p10----10--------------------------------------------10-|
G-|-------13----13-11-13-----11--------------------------------|
D-|-----------------------14----14-13-14-13-11-13-11----11-----|
A-|--------------------------------------------------14--------|
E-|------------------------------------------------------------|

e-|----------------------------------------------|
B-|----------------------------------------------|
G-|-999-8-88-7-777-6-666-99-8-88-9-8-6-66--------|
D-|-999-8-88-7-777-6-666-99-8-88-9-8-6-66--------|
A-|-777-6-66-5-555-4-444-77-6-66-7-6-4-44--------|
E-|----------------------------------------------|

e-|----------------------------------------------|
B-|----------------------------------------------|
G-|-999-8-88-7-777-6-666-99-8-88-44-5-6----------|
D-|-999-8-88-7-777-6-666-99-8-88-44-5-6----------|
A-|-777-6-66-5-555-4-444-77-6-66-22-3-4----------|
E-|----------------------------------------------|

e-|---------------------|
B-|---------------------|
G-|---6-----6-----6-----|
D-|-----6-----6---------|x8
A-|-4-----4-----4-------|
E-|---------------------|

e-|---------------------------------------------------------------------------------------------------------|
B-|---------------------------------------------------------------------------------------------------------|
G-|-(6)-----------------------(6)-----------------------(6)-----------------------(6)----------(4)pick slide|
D-|-(6)----------(7)----------(6)----------(7)----------(6)----------(7)----------(6)----------(4)----------|
A-|-(4)----------(7)----------(4)----------(7)----------(4)----------(7)----------(4)----------(2)----------|
E-|--------------(5)-----------------------(5)------------------pause(5)------------------------------------|

e-|------------------------------------------------|
B-|------------------------------------------------|
G-|-6-66-6-689-99-9-91113-1313-13-111314-14-141310-|
D-|-6-66-6-689-99-9-91113-1313-13-111314-14-141310-|x4
A-|-4-44-4-467-77-7-79-11-1111-11-9-1112-12-12119--|
E-|------------------------------------------------|

SOLO(not finished,and probably wrong!!,i'll post when i have time to finish it):

e-|-12p11----12--------------------------------------->
B-|-------14----14-12-14-12----12--------------------->
G-|-------------------------14----14-13--12b---------->
D-|--------------------------------------------------->
A-|--------------------------------------------------->
E-|--------------------------------------------------->

e-|----------------------->
B-|----------------------->
G-|-11h13-11h13-11h13----->
D-|-------------------13-->
A-|----------------------->
E-|----------------------->

e-|----------------------->
B-|---5-7p5--------------->
G-|-8-------8-6-4--------->
D-|----------------------->
A-|----------------------->
E-|----------------------->

e-|----------------------->
B-|----------------------->
G-|-6----8-9-8----8-9-11-->
D-|----------------------->
A-|----------------------->
E-|----------------------->

e-|------------------------------------------------------------|
B-|-12p10----10--------------------------------------------10-|
G-|-------13----13-11-13-----11--------------------------------|
D-|-----------------------14----14-13-14-13-11-13-11----11-----|
A-|--------------------------------------------------14--------|
E-|------------------------------------------------------------|

e-|---------------------------|
B-|---------------------------|
G-|-9-999-8-------7-777-6-----|
D-|-9-999-8pause--7-777-6pause|
A-|-7-777-6-------5-555-4-----|
E-|---------------------------|

e-|---------------------------|
B-|---------------------------|
G-|-9-999-8-------44-5-6------|
D-|-9-999-8pause--44-5-6-pause|
A-|-7-777-6-------22-3-4------|
E-|---------------------------|

e-|----------------------------------------------|
B-|----------------------------------------------|
G-|-999-8-88-7-777-6-666-99-8-88-9-8-6-66--------|
D-|-999-8-88-7-777-6-666-99-8-88-9-8-6-66--------|
A-|-777-6-66-5-555-4-444-77-6-66-7-6-4-44--------|
E-|----------------------------------------------|

e-|----------------------------------------------|
B-|----------------------------------------------|
G-|-999-8-88-7-777-6-666-99-8-88-44-5-6----------|
D-|-999-8-88-7-777-6-666-99-8-88-44-5-6----------|
A-|-777-6-66-5-555-4-444-77-6-66-22-3-4----------|
E-|----------------------------------------------|

Courtesey of Javier S?nchez.
-------------------------------------------------------------------------------


Текст, аккорды и табулатура для песни "Demented Rumours", исполняет "Lagwagon".
Используемые в песне аккорды можно найти в разделе Как брать аккорды. Аккорды для шестиструнной гитары. Другие песни можно найти на нашем сайте, воспользовавшись алфавитным указателем вверху страницы.


 
Ошибка в тексте? Выделите ошибку и нажмите Ctrl+Enter