Intro:
======
With wah wah (ah ah ah ah ah________)
|--------------------------|---------------------------|
|--------------------------|---------------------------|
|-4--4--4-4-4-4--7--7-7-7-7|-9---9-9-9-9--7h9-9-9--9---|
|-4--4--4-4-4-4--7--7-7-7-7|-9---9-9-9-9--7h9-9-9--9---|
|--------------------------|---------------------------|
|--------------------------|---------------------------|

Verse:
Acoustic plays this
  Bm          D              E
and electric this w/chorus or echo effect
|-2-----------5------------|-0-------------------------|
|-3-----------5------------|-0-------------------------|
|-4-----------7------------|-9-------------------------|
|-4-----------7------------|-9-------------------------|
|-2-----------5------------|-7-------------------------|
|--------------------------|-0-------------------------|

Chorus: (Giras y giro, de vuelta al camino...)
  Bm          D              E
and electric this w/chorus or echo effect
|--------------------------|---------------------------|
|--------------------------|---------------------------|
|-4--4-4-4--6--7--7-7-7-7--|-9-----9--9--9-------------|
|-4--4-4-4--6--7--7-7-7-7--|-9-----9--9--9-------------|
|-2--2-2-2--4--5--5-5-5-5--|-7--7-----7--7--7---7------|
|--------------------------|---A.H.---------A.H.-------|
                          lots of artificial harmonics

Play verse and chorus again

Interlude: (french singing)
==========
|-0---0-0---0-0-0-|-0---0---0--------|
|-5---5-5---5-5-5-|-5---5---5---3-3--|
|-7---7-7---7-7-7-|-7---7---7---2-2--|
|-6---6-6---6-6-6-|-6---6---6---3-3--|
|-7---7-7---7-7-7-|-7---7---7---2-2--|
|-----------------|------------------|

Solo:
=====
  Bm            D            E
|--------------------------|-----7-9-10-9h10p9-7----7------|
|--------------------------|-10b-(10)------------10--------|
|--------------------------|--------------------------9br--|
|--------------------------|------------------------------9|
|--------------------------|-------------------------------|
|--------------------------|-------------------------------|


this song is very pretty

by german sadday

all comments in [email protected]

la ley
eternidad
uno
2000 


 Bm                    D                                    
|---------------------------------------|
|---15b-17b-15--15--------15b-17b-r-b---|
|-------------16--16--------------------|
|---------------------------------------|
|---------------------------------------|
|---------------------------------------|

  E                                                          Cm
|-17-16h17p16---------16-17-19-19b-19b--17-19--------------|----|
|------------17-15-17------------------------19-19-18brp16-|----|
|----------------------------------------------------------|-17-|
|----------------------------------------------------------|----|
|----------------------------------------------------------|----|
|----------------------------------------------------------|----|

Play chorus
But raise pitch 1/2 step
Cm - D# - F


Текст, аккорды и табулатура для песни "Eternidad", исполняет "La Ley".
Используемые в песне аккорды можно найти в разделе Как брать аккорды. Аккорды для шестиструнной гитары. Другие песни можно найти на нашем сайте, воспользовавшись алфавитным указателем вверху страницы.


Слушать онлайн Eternidad


La LeyEternidad на Яндекс.Музыке


 
Ошибка в тексте? Выделите ошибку и нажмите Ctrl+Enter