Intro:
|-------------------------|--------------------------|
|-3--3--3--3--3--3--3--3--|-3--3--3--3--3--3--3--3---|
|-2--2--2--2--2--2--2--2--|-0--0--0--0--0--0--0--0---|
|-0--0--0--0--0--0--0--0--|-0--0--0--0--0--0--0--0---|
|-------------------------|-x--x--x--x--x--x--x--x---|
|-------------------------|-3--3--3--3--3--3--3--3---|
|                                                    |
|-10-10-10-10-10-10-10-10-|-10-10-10-10-10-10-10-10--|
|-10-10-10-10-10-10-10-10-|-10-10-10-10-10-10-10-10--|
|-7--7--7--7--7--7--7--7--|-7--7--7--7--7--7--7--7---|
|-------------------------|--------------------------|
|-------------------------|--------------------------|
|-------------------------|--------------------------|

Verse:
Play this palm-muting everything
|--------------------|---------------------------------|
|-3--3-3-3--3--3-3-3-|-3---3---3---3---3---3---3---3---|
|-2--2-2-2--2--2-2-2-|-0---0---0---0---0---0---0---0---|
|-0--0-0-0--0--0-0-0-|-0---0---0---0---0---0---0---0---|
|--------------------|-x---x---x---x---x---x---x---x---|
|--------------------|-3---3---3---3---3---3---3---3---|
|                                                      |
|--------------------|---------------------------------|
|--------------------|---------------------------------|
|--------------------|-5h77-5h777-5h7-5h77-5h7-7-6-5---|
|--------------------|-------------------------------7-|
|--------------------|---------------------------------|
|--------------------|---------------------------------|

Prechorus:

Em      hit trem bar
|-0-----------------|---------------|
|-0-----^^-^^-^^----|-2-------------|
|-0-----^^-^^-^^----|-2-------------|
|-2-----------------|-2-------------|
|-2-----------------|-0-------------|
|-0-----------------|---------------|

Verse
Prechorus

Chorus:
Aqui tengo el presentimiento...)
D   -   G   -  Em  -  A

Intro
Verse
Prechorus
Chorus

Interlude:
(x2)
|-------------------------|--------------------------|
|-------------------------|--------------------------|
|-------------------------|--------------------------|
|-----------------3p0-----|--------------3-5-5b-~~---|
|-3h5-5--3h5-5-5----------|-3h5-5--3h5-5-------------|
|-------------------------|--------------------------|

Solo (play every note at last 2 times)
  D                         G
|-------------------------|--------------------------|
|-------------------------|--------------------------|
|---7--9--11-14-11-9--7-7h|h9--4--4--4--4------------|
|---0--0--0--0--0--0--0-0-|-0--0--0--0--0------------|
|-------------------------|--------------------------|
|-------------------------|--------------------------|

  Em                        A
|-------------------------|--------------------------|
|-------------------------|--------------------------|
|----9--11-12-16-12-11-9--|-7--6--9--7--6--9---------|
|----0--0--0--0--0--0--0--|-0--0--0--0--0--0---------|
|-------------------------|--------------------------|
|-------------------------|--------------------------|

Prechorus
Chorus
Outro(sha na na na nanana)
|-------------------------|--------------------------|
|-3--3--3--3--3--3--3--3--|-3--3--3--3--3--3--3--3---|
|-2--2--2--2--2--2--2--2--|-0--0--0--0--0--0--0--0---|
|-0--0--0--0--0--0--0--0--|-0--0--0--0--0--0--0--0---|
|-------------------------|-x--x--x--x--x--x--x--x---|
|-------------------------|-3--3--3--3--3--3--3--3---|
|                                                    |
|-10-10-10-10-10-10-10-10-|-10-10-10-10-10-10-10-10--|
|-10-10-10-10-10-10-10-10-|-10-10-10-10-10-10-10-10--|
|-7--7--7--7--7--7--7--7--|-7--7--7--7--7--7--7--7---|
|-------------------------|--------------------------|
|-------------------------|--------------------------|
|-------------------------|--------------------------|


Текст, аккорды и табулатура для песни "Aqui", исполняет "La Ley".
Используемые в песне аккорды можно найти в разделе Как брать аккорды. Аккорды для шестиструнной гитары. Другие песни можно найти на нашем сайте, воспользовавшись алфавитным указателем вверху страницы.


Слушать онлайн Aquí


La LeyAquí на Яндекс.Музыке


 
Ошибка в тексте? Выделите ошибку и нажмите Ctrl+Enter