Вступление:

    Hm             A6             Em             F#7
E||--------------|--------------|--------------|--------------|
H||-7----8-7-----|-7----8-7-----|------7-------|------7-------|
G||----------9-7-|----------9-7-|-9------9-7-6-|-9------9-7-6-|
D||--------------|--------------|--------------|--------------|

    Hm             Dadd9/A        E6/G#          F#7
  |--------------|--------------|--------------|--------------||
  |--------------|--------------|--------------|--------------||
  |-7----9-7-6---|-7----9-7-6---|-6------------|--------------||
  |------------9-|------------9-|----------6---|-8------------||

 Hm              A6               Em
Вам может быть одна из падающих звезд,
               F#7                  Hm
Может быть для вас, прочь от этих слез,
             Dadd9/A        E6/G#           F#7
От жизни над землей  принесет наш поцелуй домой.

И может на крови вырастет тот дом,
Чистый для любви... Может быть потом
Наших падших душ не коснется больше зло.

	                 Hm              A#m+5
	Мне страшно никогда так не будет уже,
	              G+7              A#m+5
	Я - раненное сердце на рваной душе.
	Изломаная жизнь - бесполезный сюжет.
	Я так хочу забыть свою смерть в паранже.

Лишь солнце да песок жгут нам сапоги,
За короткий срок мы смогли найти
Тысячи дорог, сложенных с могил, нам с них не сойти.

И может быть кому не дадим своей руки,
Может потому, что у нас внутри
Все осколки льда не растопит ни одна звезда.

	Припев > 2 раза

	Проигрыш: Hm A#m+5 G+7 A#m+5 > 4 раза
	
	
	        
Комментарий автора: Dadd9/A: x02232 E6/G#: 44645x A#m+5: x1x322

Текст, аккорды и табулатура для песни "Звезда", исполняет "Кукрыниксы".
Используемые в песне аккорды можно найти в разделе Как брать аккорды. Аккорды для шестиструнной гитары. Другие песни можно найти на нашем сайте, воспользовавшись алфавитным указателем вверху страницы.


 
Ошибка в тексте? Выделите ошибку и нажмите Ctrl+Enter