Вступление:

   --------------------------------------------------  
   --------------------------------------------------    
   ---------11р12-11--------------11р12-11-----------   
   -------9----------9----------9----------9---------   
   ----10--------------10----10--------------10------   
   --0---------------------0-------------------------  



     E   D5   A5    C3  G3   F2#  B2   D#6
   ----|----|----|----|----|----|----|-----
   ----|----|----|----|----|----|----|------
   ----|--7-|----|--5-|----|----|--4-|--9---
   --2-|--7-|--7-|--5-|--5-|--4-|--4-|--9---
   --2-|--5-|--7-|--3-|--5-|--4-|--2-|--6---
   --0-|----|--5-|----|--3-|--2-|----|------


 E                 D5 
Мне всегда хватало слов
A5        C3
Я не говорил
     E           D5
Из-за каменных основ
   A5         C3
К вам не выходил
E   D5        A5
Я дерзок и смешен
C3         G3 
Музыкой лишен
      A5      F2#
Поговори со мной!


И повсюду был мой след
Дороги я не знал
Среди проходящих лет
Он не исчезал
Мне не стелите путь
Находя в нем суть
Поговорив со мной!

Припев:

 E      A5      D5    
Падали капли дождя,
     B2
Размывая землю
 E       A5      D5     D#6 
Падали стены земного дворца
Из далека на века
Приносили в землю
Лучшие мысли творца

Думай думай кто же я
Голос не живой
Думай как узнать меня
Путая с собой
И все вертелось
И нам хотелось
Поговорить хоть раз с тобой!

Падали капли дождя,
Размывая землю
Падали стены земного дворца
Из далека на века
Приносили в землю
Лучшие мысли творца


Текст, аккорды и табулатура для песни "Творец", исполняет "Кукрыниксы".
Используемые в песне аккорды можно найти в разделе Как брать аккорды. Аккорды для шестиструнной гитары. Другие песни можно найти на нашем сайте, воспользовавшись алфавитным указателем вверху страницы.


 
Ошибка в тексте? Выделите ошибку и нажмите Ctrl+Enter