Вступление:

2---3-3-3--3-3-3-2-3-2-3-3------------------------|
3----------------------------------2-2-3-3--------------|   x2       
4---------------------------------------------3-2-3-2---|


2---12-12-12-11-12-12-12-11-12-11-12-12---------------------------------------|
3----------------------------------------------------------11-11-12-12---------------------|   x2
4----------------------------------------------------------------------------12-11-12-11---|


2---3-3-3-2-3-3-3-2-3-2-3-3-------------------------|
3------------------------------------2-2-3-3--------------|   x2   Hm~~~
4-----------------------------------------------3-2-3-2---|


Текст, аккорды и табулатура для песни "По раскрашенной душе", исполняет "Кукрыниксы".
Используемые в песне аккорды можно найти в разделе Как брать аккорды. Аккорды для шестиструнной гитары. Другие песни можно найти на нашем сайте, воспользовавшись алфавитным указателем вверху страницы.


 
Ошибка в тексте? Выделите ошибку и нажмите Ctrl+Enter