Вступление:

    Hm
G||-----0-------0---|
D||---4---4---4---4-| \
A||-2-------2-------| / 4 раза
E||-----------------|

    Hm      G6        Asus4   F#
e||-----2-------2---|-----------------|
H||---3---3---3---3-|---3---3-----2---|
G||-4-------4-------|-2---2-----3---2-| \
D||-----------------|---------4-------| / 4 раза
A||-2---------------|-0---------------|
E||---------3-------|---------2-------|

 Hm               Em         F#
Боли нет, я ослеплен, и нет веры.
     Hm                  Em        F#
Как может свет мне дать все и без меры,
 G                  F#           Hm 
Так часто дарит он нам одинокий луч.

Проигрыш = вступление

Я смотрю на небо, но все нелепо,
И солнце в небе, я сам это небо,
G                F#          G7/H  F#
Я дотянулся до грани и стал немым.

	  Hm     A      C        G   F#
	Свои имена я никак не менял,
	Свои голоса я всегда узнавал,
	Моими руками ломалась земля,
	Своими словами я всех удивлял.

	Проигрыш

Солнца луч меня толкает и греет,
Несет поперек пути и не верит,
Что я, оказавшись один, без него, велик.

Проигрыш

Как отец, меня коснется и спросит,
За все слова прожжет, за все с меня спросит,
И, лишь спустившись на землю, совсем сгорит.

	Припев


Текст, аккорды и табулатура для песни "Фаворит солнца", исполняет "Кукрыниксы".
Используемые в песне аккорды можно найти в разделе Как брать аккорды. Аккорды для шестиструнной гитары. Другие песни можно найти на нашем сайте, воспользовавшись алфавитным указателем вверху страницы.


 
Ошибка в тексте? Выделите ошибку и нажмите Ctrl+Enter