Song:       This Time
Band:       Kutless
Album:      Kutless

Instrument: 4 String Bass
Tuning:     D A D G
Tabber:     PETI ([email protected])

------------





intro (0:04)
G|-----------------------------|
D|-----------------------------|
A|-0-1--1--1-3-------1--1--1-3-|
D|--------------3------------|


(0:15)                                                  (0:44)
G|--------------------------------------------------------------|------------------|
D|--------------------------------------------------------------|------------------|
A|------1--1--1-3-------1--1--1-3-----1--1--1-3-------1--1--1-3-|----1--------1----|
D|-3-------------3-------------0-------------3------------|-0-----3--0-----3-|



(0:59)                                                  
G|--------------------------------------------------------------|
D|--------------------------------------------------------------|
A|------1--1--1-3-------1--1--1-3-----1--1--1-3-------1--1--1-3-|
D|-3-------------3-------------0-------------3------------|


(1:28)                          3X
G|----------------------------|
D|----------------------------|
A|----1-------------1---------|
D|-0-----3--1-1--0-----3--1-1-|


(2:11)
G|-----------------------------------------------------------|
D|----------------3--3-5-3----------3--3-5-3----------3------|
A|-------------------------5-----------------5---------------|
D|-0--0--0--0--0--------------0--0--------------0--0-----1-1-|


(2:48)                          3X
G|----------------------------|
D|----------------------------|
A|----1-------------1---------|
D|-0-----3--1-1--0-----3--1-1-|



(3:32)                                                  
G|----------------------|
D|----------------------|
A|----1--1--1-3-------1-|
D|-0-------------3----|


Текст, аккорды и табулатура для песни "This Time", исполняет "Kutless".
Используемые в песне аккорды можно найти в разделе Как брать аккорды. Аккорды для шестиструнной гитары. Другие песни можно найти на нашем сайте, воспользовавшись алфавитным указателем вверху страницы.


Слушать онлайн This Time


KutlessThis Time на Яндекс.Музыке


 
Ошибка в тексте? Выделите ошибку и нажмите Ctrl+Enter