---------------------------------------------------------------------
                             Kutless - In me  
---------------------------------------------------------------------
Tabbed By: Max 
E-mail: [email protected]
Tuning: Drop-D

I don't know if I'm using the Riff system properly, but it seemed 
like a more efficient way to write out the tabs. If you have any 
corrections or questions or advice e-mail me. Also this is the 
first tab I've posted.

Key: | /  slide up
     |   slide down
     | h  hammer-on
     | p  pull-off
     | ~  vibrato
     | *  harmonic
     | x  Mute note
     | .  Palm mute

Intro: 
  
Riff 1 gtr.2
e|---------|
B|-4-5-4-5-|						
G|---------| x8
D|---------|
A|---------|
D|---------|

Riff 2a gtr.1 
e|---|
B|---|
G|---|
D|-3-|
A|-3-|
D|-3-|

Riff 2b gtr.1
|---------------------|
|------------------7*-|
|----------7*---------| x4
|-3-5-3-3-----3-3-----|
|-3-5-3-3-----3-3-----|
|-3-5-3-3-----3-3-----|
  . . . .     . .

Verse 1: 

Riff 3 gtr.1
e|---------------------------|
B|---------------------------|
G|---------------------------| 
D|-3-5-5-5--1-1-1-1--3-3-3-3-| x2
A|-3-5-5-5--1-1-1-1--3-3-3-3-|
D|-3-5-5-5--1-1-1-1--3-3-3-3-|
   . . . .  . . . .  . . . .

Riff 4 gtr.1
e|---------------------------|
B|---------------------------|
G|-7/87/87---7/87--3--5-2-| x2
D|-x/xx/xx---x/xx--x--x-x-|
A|-5/65/65---5/65--1--3-0-|
D|---------------------------|

Chorus:

Riff 5a gtr.1
e|-------------------------------------|    
B|-------------------------------------|    
G|------------------10-10-10-8-8-8-7-7-| x2 
D|-5-5-5-8-8-8-3-3--x--x--x--x-x-x-x-x-|    
A|-5-5-5-8-8-8-3-3--8--8--8--6-6-6-5-5-|    
D|-5-5-5-8-8-8-3-3---------------------|    

Riff 5b gtr.1
e|------------------------------------------|
B|------------------------------------------|
G|-7-7-7--3-3-3---5-5-5--10-10-10-8-8-8-7-7-|
D|-x-x-x--x-x-x---x-x-x--x--x--x--x-x-x-x-x-|
A|-5-5-5--1-1-1---3-3-3--8--8--8--6-6-6-5-5-|
D|------------------------------------------|

Riff 5c gtr.1
e|--------------------|
B|--------------------|
G|--------------------|
D|-5-5-5-8-8-8-3--x-5-|
A|-5-5-5-8-8-8-3--x-3-|
D|-5-5-5-8-8-8-3--x-3-|

Play Riff 2a

Verse 2:

Riff 6 gtr.1
e|---------------------------|
B|---------------------------|
G|----------3-3-3-3--2-2-2-2-| x2
D|-3-5-5-5--x-x-x-x--x-x-x-x-|
A|-3-5-5-5--1-1-1-1--0-0-0-0-|
D|-3-5-5-5-------------------|
  
Play Riff 4

Play Chorus x2

Interlude:

Riff 7 gtr.1
e|--------------|    
B|--------------|   
G|--------------|   
D|-5-5-5--5-5-5-|   
A|-5-5-5--5-5-5-|   
D|-5-5-5--5-5-5-|   

Riff 8 gtr.2 
e|---------------------|
B|---------------------|
G|---------------5-----|
D|-----7-----------5---| x4
A|---5---5-----3-------|
D|-5-------5-3-------3-|

Riff 9 gtr. 2
e|--------------|
B|--------------|
G|------------5-|
D|-----7--------| x2
A|---5------3---|
D|-5------3-----|

Play Chorus x2
  
Play riff 2b

End on
e|---------|
B|---------|
G|---------|
D|-3-5-3-3-|
A|-3-5-3-3-|
D|-3-5-3-3-| 
   . . . .

That's all! 
Have fun

Max Andersen  
=====================================================================


Текст, аккорды и табулатура для песни "In Me", исполняет "Kutless".
Используемые в песне аккорды можно найти в разделе Как брать аккорды. Аккорды для шестиструнной гитары. Другие песни можно найти на нашем сайте, воспользовавшись алфавитным указателем вверху страницы.


Слушать онлайн In Me


KutlessIn Me на Яндекс.Музыке


 
Ошибка в тексте? Выделите ошибку и нажмите Ctrl+Enter