In Me by Kutless
Standard Tuning

(Intro)(0.10)
G:-----------|-----------|-----------|-----------|
D:-----------|-----------|-----------|-----------|
A:8-10-8--8-8|8-10-8--8-8|8-10-8--8-8|8-10-8--8-8|
E:-----------|-----------|-----------|-----------|

G:-----------|-----------|-----------|-----------|
D:-----------|-----------|-----------|-----------|  x2
A:-10-----10-|-10-----10-|6--6--6--6-|-8--8--8--8|
E:-----------|-----------|-----------|-----------|

G:-----------|-----------|-----------|-----------|
D:-----------|-----------|-----------|-----------|
A:10---6-----|-8-------5-|-10-----6--|-8--------5|
E:-----------|-----------|-----------|-----------|


(Chorus)
G:-----------|-----------|-----------|-----------|
D:-------8--8|-----------|-------8--8|-----------|  x2
A:10--10-----|8--8--8--8-|10--10-----|8--8--8--8-|
E:-----------|-----------|-----------|-----------|

G:-----------|-----------|-----------|-----------|
D:-----------|-----------|-----------|-----------|
A:8-10-8--8-8|8-10-8--8-8|8-10-8--8-8|8-10-8--8-8|
E:-----------|-----------|-----------|-----------|

G:-----------|-----------|-----------|-----------|
D:-----------|-----------|-----------|-----------|
A:10---6-----|-8-------5-|-10------6-|-8------5--|
E:-----------|-----------|-----------|-----------|

G:-----------|-----------|-----------|-----------|
D:-------8--8|-----------|-------8--8|-----------|  x2
A:10--10-----|8--8--8--8-|10--10-----|8--8--8--8-|
E:-----------|-----------|-----------|-----------|

G:-----------|-----------|-----------|-----------|
D:-----------|-----------|-----------|-----------|
A:10--10--10-|-----------|10--10--10-|-----------|
E:-----------|-----------|-----------|-----------|

G:-----------|-----------|-----------|-----------|-----------|-----------|
D:-----------|-----------|-----------|-----------|-----------|-----------|
A:-8------10-|-10------8-|-8------10-|-10------8-|-8------10-|-10------8-|
E:-----------|-----------|-----------|-----------|-----------|-----------|

G:-----------|-----------|-----------|-----------|-----------|-----------|
D:-----------|-----------|-----------|-----------|-----------|-----------|
A:-8------10-|-10------8-|-8------10-|-10------8-|-8------10-|-10------8-|
E:-----------|-----------|-----------|-----------|-----------|-----------|

(Chorus)
G:-----------|-----------|-----------|-----------|
D:-------8--8|-----------|-------8--8|-----------|  x2
A:10--10-----|8--8--8--8-|10--10-----|8--8--8--8-|
E:-----------|-----------|-----------|-----------|

                                     |---Outro---|
G:-----------|-----------|-----------|-----------|
D:-----------|-----------|-----------|-----------|
A:8-10-8--8-8|8-10-8--8-8|8-10-8--8-8|8-10-8-----|
E:-----------|-----------|-----------|-----------|

Thanks, please rate after you learn it.
Tabbed by:
_TheBassist01_


Текст, аккорды и табулатура для песни "In Me", исполняет "Kutless".
Используемые в песне аккорды можно найти в разделе Как брать аккорды. Аккорды для шестиструнной гитары. Другие песни можно найти на нашем сайте, воспользовавшись алфавитным указателем вверху страницы.


Слушать онлайн In Me


KutlessIn Me на Яндекс.Музыке


 
Ошибка в тексте? Выделите ошибку и нажмите Ctrl+Enter