Басс - ритм
 
 
 
 
 G|---------|-------|
 D||*------0-2-----|------0-3p-2---*||------0-2-----|------0-3p-2---|
 A||*----2---------|----2----------*||----2---------|----2----------|
 E||---0-----------|--0-------------||--0-----------|--0------------|
 
 
 
 -------------------------------|
 ------0-2-----|------0-3p-2---|--2-----2-----2---|----2-----2------|
 ----2---------|----2----------|----2-----2-----2-|------2-----2----|
 --0-----------|--0------------|------0-----0-----|--0-----0-----0--|
 
 
 
 -------------------------------------|
 --0-----0-----0---|----0-----0-------------------|
 ----0-----0-----0-|------0-----0----|--3-----3-----3---|----3-----3------|
 ------2-----2-----|--2-----2-----2--|----3-0---3-0---3-|--0---3-0---3-0--|
 
 
 
 ----------------------|
 ------------|--2--2----------|--2--2----------|
 --3----5----|--2----2p2-----|--3----5----|--2----2p2-----|--3----5----|
 --3----5----|--0--------0---|--3----5----|--0--------0---|--3----5----|
 
 
 
 -------------------------|
 --2--2---------||*--2-----2-----2---|----2-----2------|--0-----0-----0---|
 --2----2p2-----||*----2-----2-----2-|------2-----2----|----0-----0-----0-|
 --0--------0---||-------0-----0-----|--0-----0-----0--|------2-----2-----|
 
 
 
 -------------------------------|
 ----0-----0--------------------|
 ------0-----0----|--3-----3-----3---|----3-----3------|--3----5----|
 --2-----2-----2--|----3-0---3-0---3-|--0---3-0---3-0--|--3----5----|
 
 
                                                                           2x
 --------------------------||
 --2--2----------|--2--2----------|--2--2---------*||
 --2----2p2-----|--3----5----|--2----2p2-----|--3----5----|--2----2p2-----*||
 --0--------0---|--3----5----|--0--------0---|--3----5----|--0--------0----||
 
 
                                     Лилии
 
 
                                                Анатолий Крупнов(Черный Обелиск)
 Басс - соло
 
 
 
 
 G||---7-|
 D||*----------|----------*||---5-2---0---|--2--------|--7/-9-9------|
 A||*----------|----------*|-----|
 E||-----|
 
 
 
 --7/-9-9-----|
 -------------|
 -------------|
 -------------|

 
 
 


	
	
	        
Комментарий автора: соло только в бета-версии, так что сильно не бить...:)

Текст, аккорды и табулатура для песни "Лилии", исполняет "Крупский Сотоварищи".
Используемые в песне аккорды можно найти в разделе Как брать аккорды. Аккорды для шестиструнной гитары. Другие песни можно найти на нашем сайте, воспользовавшись алфавитным указателем вверху страницы.


 
Ошибка в тексте? Выделите ошибку и нажмите Ctrl+Enter