F#m                     Hm
1.   Кольщик наколи мне купола,
    D                           A(F5)
     Рядом чудотворный крест с иконами,
    Hm            E        F#m        Hm D
     Чтоб играли там колокола
    E                    F#m
     С переливами и перезвонами. 

2.   Наколи мне домик у ручья,
     Пусть течет по воле струйкой тонкою.
     Чтобы от него портной судья
     Не отгородил меня решеткою.

3.   Нарисуй алеющий закат.
     Розу за колючей ржавой проволкой.
     Строчку:"Мама, я не виноват!"
     Наколи, и пусть стереть попробуют.

4.   Если места хватит - нарисуй
     Лодку с парусами ветром полными.
     Уплыву, волки, вот вам...
     Чтобы навсегда меня запомнили.

5.   И легло на душу, как покой.
     Встретить мать - одно мое желание.
     Крест коли, чтоб я забрал с собой
     Избавление, но не покаяние.

                   (читается голосом)
     Не осуждай меня мама, я ведь только тем и жил,
     что знал - ты меня ждешь; я знаю, ты плачешь
     вечерами и видишь сны где я совсем еще маленький, 
     подкрадываюсь к тебе и закрываю твои глаза ладошками;
     ты нарочно говоришь:"отец?,Татьянка?", я смеюсь:
     "нет, нет, не угадала"; отцу с Танюхой привет; деньги 
     в конверте не шли - суки все вынут, но я ж назло им 
     вернусь, потому что ты меня ждешь.

                      (обычный перебор 3-2-3-1-3-2-3)



  F#m                                 Hm
6 -2-----------2---|-0---------------|-----------------|-----------------|
5 -----------------|-----------------|-2-----------2-0-|-2---------------|
4 -----------------|-----------------|-----------------|-----------------|
3 ---2---2---2---2-|---2---2---2---2-|---4---4---4-----|---4---4---4---4-|
2 -----2-----------|-----2-------2---|-----3-----------|-----3-------3---|
1 ---------2-------|---------2-------|---------2-------|---------2-------|

  D                                   A(F5)
6 -----------------|-----------------|-5-----------5---|-5---------------|
5 -5-----------5---|-----------------|-----------------|-----------------|
4 -----------------|-4---------------|-----------------|-----------------|
3 ---2---2---2---2-|---2---2---2---2-|---6---6---6---6-|---6---6---6---6-|
2 -----3-----------|-----3-------3---|-----5-----------|-----5-------5---|
1 ---------2-------|---------2-------|---------5-------|---------5-------|

  Hm                E                 F#m
6 -----------------|-0---------------|-2-----------2---|-----------------|
5 -2-----------2---|-----------------|-----------------|-0-------5-------|
4 -----------------|-----------------|-----------------|-----------------|
3 ---4---4---4---4-|---1---1---1---1-|---2---2---2---2-|---2---2---2---2-|
2 -----3-----------|-----0-------0---|-----2-----------|-----2-------2---|
1 ---------2-------|---------0-------|---------2-------|-----------------|

  Hm                D                 E
6 -----------------|-----------------|-0-----------0---|-0---------------|
5 -2-----------2-4-|-5-------5-4-2-0-|-----------------|-----------------|
4 -----------------|-----------------|-----------------|-----------------|
3 ---4---4---4-----|---2---2---------|---1---1---1---1-|---1---1---1---1-|
2 -----3-----------|-----3-----------|-----0-----------|-----0-------0---|
1 ---------2-------|-----------------|---------0-------|---------0-------|

  F#m                                      D ставить так  (3)   (2)
6 -2-----------2---|-2---------------|     6|-----|-----|-----|--X--|
5 -----------------|-----------------|     5|--X--|-----|-----|--X--|
4 -----------------|-----------------|     4|-----|--X--|-----|--X--|
3 ---2---2---2---2-|---2---2---2---2-|     3|-----|-----|-----|--X--|
2 -----2-----------|-----2-------2---|     2|-----|-----|--X--|--X--|
1 ---------2-------|---------2-------|     1|-----|-----|-----|--X--|


Текст, аккорды и табулатура для песни "Кольщик", исполняет "Круг Михаил".
Используемые в песне аккорды можно найти в разделе Как брать аккорды. Аккорды для шестиструнной гитары. Другие песни можно найти на нашем сайте, воспользовавшись алфавитным указателем вверху страницы.


 
Ошибка в тексте? Выделите ошибку и нажмите Ctrl+Enter