Em
 Ты к запретке подойдешь,
H
 Помахаешь мне рукой.
Dm                   E
 Улыбнешься как всегда 
              Am
 И крикнешь:"Здравствуй!"
H
 Здравствуй добрая моя,
Em                  C
 Здравствуй милая моя,
           Am             H
Не надо печали и так все ясно.

 Прошлый раз смотрел в окно
Дождь шел сильный,проливной.
Мы смотрели друг на друга и молчали.
По твоим щекам текли капли летнего дождя,
А может слезы,слезы печали.
        Em  C Am H
  Идет этап.
        Em  C Am H
  Идет этап.

 Он идет в такую тьму,Саликамскую тюрьму,
"Белый Лебедь" часто сном кошмарным вижу.
Суки правят безпредел,ни один я поседел,
Думал о тебе,лишь тем и выжил.
 Лишь к тебе одной родной
Я стремился всей душой.
У тебя одной молю,прошу прощенья!
Понимаю твою грусть,но ты ждешь и я вернусь,
А пока для нас печаль и сожаленье.

  Идет этап.
  Идет этап.


 (Табы на припев.)
                                                        
E|---0--------------0-----------|
B|------0--------1-----1--------|
G|0--------------|--------0-----------------|
D||--------2-----------2--0-----------------|
A|---------------|--3-----------------3--2--|
E||--0--------------------------------------|


                                                       
--------------0--------------2-----------||
-----------1-----1--------4-----4--------||
--------2-----------2-----|--------4-----------4-----||
-----2-----------------2--|-----4-----------------4--||
--0-----------------------|--2-----------------------||
-----------------------------------------||


Текст, аккорды и табулатура для песни "Идет этап", исполняет "Круг Михаил".
Используемые в песне аккорды можно найти в разделе Как брать аккорды. Аккорды для шестиструнной гитары. Другие песни можно найти на нашем сайте, воспользовавшись алфавитным указателем вверху страницы.


 
Ошибка в тексте? Выделите ошибку и нажмите Ctrl+Enter