-----------------------------------------------------------------------------
	         Hero – Chad Kroeger, Josey Scott, others
-------------------------------------------------------------------------------
Most of the other tabs are right, but if you listen to the higher accented 
Notes in the song, you realize there is a slight chord change. And so with 
Change, this seems the easiest way to play it. Or just take a look at the 
Video and you can tell this is what he’s doing.

TUNED: Down Ѕ Step (EbAbDbGbBbEb)
These are the chords, it’s not too hard to figure out strumming pattern.
Verse
e|---------------------------------------------------------------------------|
B|-1-----0-----3-----1-------------------------------------------------------|
G|-2-----2-----2-----2-------------------------------------------------------|
D|-2-----2-----2-----2-----3-------------------------------------------------|
A|-0-----0-----0-----0-----3-------------------------------------------------|
E|-------------------------1-------------------------------------------------|

Bridge
e|---------------------------------------------------------------------------|
B|---------------------------------------------------------------------------|
G|---------------------------------------------------------------------------|
D|-6-----8-----3-------------------------------------------------------------|
A|-6-----8-----3-------------------------------------------------------------|
E|-4-----6-----1-------------------------------------------------------------|
              P.M. 

Chorus
e|------------------------|---------------------------------------------------|
B|------------------------|---------------------------------------------------|
G|------------------------|---------------------------------------------------|
D|-6-----8-----10---------|-6----8----3---------------------------------------|
A|-6-----8-----10---------|-6----8----3---------------------------------------|
E|-4-----6-----8----------|-4----6----1---------------------------------------|
                                      P.M.
Second verse same as first, 
except the first strum hammer on B|-0h1-| with the chord

Chorus is the same

Rhythm under solo is same progression as chorus

Solo
e|---------------------------------------------------------------------------|
B|---------------------------------------------------------------------------|
G|---------------------------------------------------------------------------|
D|------------------------------------------53/53/53-----53/53/53------|
A|-65/65/65-3-----65/65/65------3--5--------------6---------------5----|
E|-------------------------------6-------------------------------------------|

e|---------------------------------------------------------------------------|
B|---------------------------------------------------------------------------|
G|---------------------------------------------------------------------------|
D|-------------3-----5-------------------------------------------------------|
A|-3-----6-------------------------------------------------------------------|
E|---------------------------------------------------------------------------|

Verse
e|--------6-----------8----------10-8---------10p8---------------------------|
B|------------------------------------8------------8-------------------------|
G|---------------------------------------------------------------------------|
D|---------------------------------------------------------------------------|
A|-6------------8-----------10------------10---------------------------------|
E|-4------------6-----------8-------------8----------------------------------|
   Strum  Pluck........


e|--------6-----------8------------------------------------------------------|
B|---------------------------------------------------------------------------|
G|---------------------------------------------------------------------------|
D|-------------------------3-------------------------------------------------|
A|-6------------8----------3-------------------------------------------------|
E|-4------------6----------1-------------------------------------------------|
                           P.M.

Chorus (don’t P.M. the E5)

For outro, play 1st half of chorus riff 3x, and on the third time, let the first
B5 ring to end this amazingly awesome song.


Текст, аккорды и табулатура для песни "Hero", исполняет "Kroeger Chad".
Используемые в песне аккорды можно найти в разделе Как брать аккорды. Аккорды для шестиструнной гитары. Другие песни можно найти на нашем сайте, воспользовавшись алфавитным указателем вверху страницы.


 
Ошибка в тексте? Выделите ошибку и нажмите Ctrl+Enter