This is a really cool song, and it sounds really good in acoustic guitar.
Pay attention and listen for the strum patterns.  Have fun.
fobia_stp.

Tunning:standard

Intro.
     
                    |----------------|
     Play           |1-0-3-1---------|
     this           |2-2-2-2-0-0-0-0-| 
     two            |2-2-2-2-2-2-2-2-|
     times          |--------2-2-2-2-|
                    |----------------|

since it would be too much numbers, the numbers on top of the stars are how many
times you strum.

first verse.

                     6   6   10
                    ***********
    This            |2---4-----|          
    leads           |2---4-----|
    to              |2---4---0-|
    chorus          |4---6---2-|
                    |4---6---2-|
                    |2---4-----|




                     6  6  10 2  6  6  10
                    *********************
                    |2--4--6--4--2--4----|
    chorus          |2--4--6--4--2--4----|
                    |2--4--6--4--2--4--0-|
                    |4--6--8--6--4--6--2-|
                    |4--6--8--6--4--6--2-|
                    |2--4--6--4--2--4----|

Repeat Intro,first verse,and chorus. When you finish the chorus,
the Solo part begins.

 |-----------------------------------------------------------------
 |-----------------------------------------------------------------
 |-----------------------------------------------------------------
 |-----------------------------------------------------------------
 |6p5-6p5-6p5-3-6p56p56p5---3-5--8p10-8p10-8p10---6--8p10-8p10-8p10
 |-----------------------6-----------------------------------------

 |-----------------------------|
 |-----------------------------|
 |-----------------------------|
 |-----------------------------|
 |-----------6-6-6--8-8-8--10/-|
 |10--8-8-8--------------------|

                                                                   10
*********************************************************************
 |-5----------5--------7--9---------9-------------------5-------7----|
 |-------------------9------7---------7------------------------9-----|
 |---------7-------9----------7---------7-------------7------9-----0-|
 |---5---5-------9--------------8---------8-----5---5------9-------2-|
 |-----5-------7------------------9---------9-----5------7---------2-|
 |-------------------------------------------------------------------|

Repeat chorus.

If you pay close attention this is how the song ends.

   1  1  1  1
****************
 |-6--4--2--6-|
 |-6--4--2--6-|
 |-6--4--2--7-|
 |-8--6--4--8-|
 |-8--6--4--8-|
 |-6--4--2--6-| 

That's it. Have fun.


Текст, аккорды и табулатура для песни "Hero", исполняет "Kroeger Chad".
Используемые в песне аккорды можно найти в разделе Как брать аккорды. Аккорды для шестиструнной гитары. Другие песни можно найти на нашем сайте, воспользовавшись алфавитным указателем вверху страницы.


 
Ошибка в тексте? Выделите ошибку и нажмите Ctrl+Enter