(что-то на немецком языке)
 
e|---------------------------------------------------------------------
H|---------------------------------------------------------------------
G|---------------------------------------------------------------------
D|-----------------------------------------------------7---------------
A|-4/5-4-2-7-4/5-4/5-4-2-7-4/5-4/5-4-2-7-4/5-4/5-4-0-7-7---------------
E|-2/3-2-0-5-2/3-2/3-2-0-5-2/3-2/3-2-0-5-2/3-2/3-2-0-5-----------------
 
e|---------------------------
H|---------------------------
G|--------------------------- проигрыш
D|-5-4-2-4-5-7-4-5-4-2-4-5-2-
A|---------------------------
E|---------------------------

   Em                                    Am
 В моем нагрудном кармане дыра, а под дырой y меня
   Em                C      Hm      Em
 Доброе сердце, прозрачное как стекло
 Я пел их песни, пил их вино, мне было так хорошо
 До тех пор, пока не стало темно.
 
 Am    G         C D Am      G          C           D
  Я зажег трын-траву, я зарядил свежим газом свой шпалер
 Am      G          C D Am       G        D         Em
  Я вдохнул в себя дозу, такую чтобы внутри взошло солнце
 
 Из местной клиники на волю в пампасы убежал идиот,
 Влез на пальму и откусил себе хвост.
 А на улице чистой любви негры взорвали роддом
 И всех наших посадили на кол.
 
  О, это (???), а вместо счастья кусочек дерьма
  И бог знает когда над Африкой вновь взойдет солнце.
 
 Соло (не подбирал и не буду ;))
 
 Око за око, зуб за зуб, рот за рот - ты стала липкой как мед
 Значит скоро белая грязь потечет
 А мы вальсируем на скользком столе и сквозь дыру в потолке
 Виден космос, мы свободны уже.
 
  Открой милая рот, я вложу в него свой пистолетик
  Я нажму на курок. Приготовься, сейчас брызнет солнце.



Текст, аккорды и табулатура для песни "ШПАЛЕР", исполняет "Крематорий".
Используемые в песне аккорды можно найти в разделе Как брать аккорды. Аккорды для шестиструнной гитары. Другие песни можно найти на нашем сайте, воспользовавшись алфавитным указателем вверху страницы.


Слушать онлайн Шпалер


КрематорийШпалер на Яндекс.Музыке


 
Ошибка в тексте? Выделите ошибку и нажмите Ctrl+Enter