Вступление:

    C                                   F                 G
E||-----------------|-----------------|-----------------|----------||
H||---5-5-5-5-------|---5-5-5-5-------|-----------------|----------||
G||-----------7-5-5-|-----------7-5-5-|---5-5-5-5---5---|----------||
D||-----------------|-----------------|-----------7---7-|---5------||

    C                                   F             G
E||-----------------|-----------------|-----------------|
H||---5-5-5-5-------|---5-5-5-5-------|-----------------|
G||-----------7-5-5-|-----------7-5-5-|---5-5-5-5---5-7-|
D||-----------------|-----------------|-----------7-----|

                 C                   Dm
Вчера я был молодым, вчера я был беспечным,
	       F G                C    G
Плевал свысока   на приличья и такт.
И в порядочных компаньях, и при жлобах
Вел себя я хуже чем панк.

Видел то, что было, и то, чего нет.
Не раз примерял к виску пистолет. 
Умирал за любовь и клялся войной,
             F   G                 C      
Гулял по волнам,   и летал над землей.

	       Am            F
	Еще вчера я был далеко
	                      Dm                   G
	В беспредельном пространстве в сказочном НЛО.
	          C                        Am
	А, может быть, все это было лишь сном
	               F    G             C
	С небывалым сюжетом и веселым концом.
 
	Проигрыш = вступление

Может скажет какой-то непуганный хам:
"Да это всего лишь похмельный регтайм!"
Но то ли стало теплей, то ли согрел душу ром,
А, может быть, все дело в том,
	
	Что еще вчера я был далеко 
	В беспредельном пространстве в сказочном НЛО.
	А, может быть, все это было лишь сном
	С небывалым сюжетом и веселым концом.

Проигрыш: C | Dm | F G | C G > 2 раза
	
	Припев

Кода = вступление


Текст, аккорды и табулатура для песни "Похмельный регтайм", исполняет "Крематорий".
Используемые в песне аккорды можно найти в разделе Как брать аккорды. Аккорды для шестиструнной гитары. Другие песни можно найти на нашем сайте, воспользовавшись алфавитным указателем вверху страницы.


 
Ошибка в тексте? Выделите ошибку и нажмите Ctrl+Enter