Introduction:

                Fmaj7   Fadd9 C  
e ---------------0----0--3----0---0-3-0-0---0--0-3-----
H ---------------1----1--1----1---1-1-1-1---1--1-1-----
G ---------------2----2--2----0---0-0-0-0---2--2-2-----
D ---------0-2---3----3--3----2---2-2-2-2---3--3-3-----
A ---0-2-3--------------------3---3-3-3-3--------------
E -3---------------------------------------------------


                                            G
e -0--0-3-0-0----0----0--3----0---0-3-0-0---3-3-3-3-3-3
H -1--1-1-1-1----1----1--1----1---1-1-1-1---0-0-0-0-0-0
G -0--0-0-0-0----2----2--2----0---0-0-0-0---0-0-0-0-0-0
D -2--2-2-2-2----3----3--3----2---2-2-2-2---0-0-0-0-0-0
A -3--3-3-3-3-----------------3---3-3-3-3---2-2-2-2-2-2
E ------------------------------------------3-3-3-3-3-3


e ---------------0----0--3----0---0-3-0-0---0--0-3-----
H ---------------1----1--1----1---1-1-1-1---1--1-1-----
G -----------0-2-2----2--2----0---0-0-0-0---2--2-2-----
D -----0-2-3-----3----3--3----2---2-2-2-2---3--3-3-----
A ---3------------------------3---3-3-3-3--------------
E -----------------------------------------------------


                                            G
e -0--0-3-0-0----0----0--3----0---0-3-0-0---3-3-3-3-3-3
H -1--1-1-1-1----1----1--1----1---1-1-1-1---0-0-0-0-0-0
G -0--0-0-0-0----2----2--2----0---0-0-0-0---0-0-0-0-0-0
D -2--2-2-2-2----3----3--3----2---2-2-2-2---0-0-0-0-0-0
A -3--3-3-3-3-----------------3---3-3-3-3---2-2-2-2-2-2
E ------------------------------------------3-3-3-3-3-3


C

C           Am         Fmaj7  C             G     C
Я открыл свое окно и увидел обычный будний день
         Am             Fmaj7 C          G
Толпу людей в метро, толпу солидных горожан
    Fmaj7    C     Fmaj7     C
Толкающих тебя, и голову сломя
   Fmaj7      C       G
Бегущих на рабочие места

C
          Am            Fmaj7    C       G      C
И стало скучно мне смотреть на эту беготню
       Am         Fmaj7    C    G
И я хотел уже закрыть   свое окно
      Fmaj7     C     Fmaj7       C
Но вдруг увидел я, летящих в никуда
Fmaj7         C          G
   Крылатых, розовых слонов

   Fmaj7      C       Fmaj7       C
И понял я тогда, что нужно мне туда -
Fmaj7          C          G
   К слонам летящим в никуда

           Fmaj7          C          Fmaj7         C    
    Наш полет был словно сон, много солнца было в нем
           Fmaj7  C           G
    Серый мир растаял без следа
           Fmaj7        C          Fmaj7         C    
    Ныне к звездам я летел, звезд тепло познать хотел
               G              Fmaj7     C
    И рад был тем, что повстречал удачу я!

Мы спим и видим сны, и каждый мечтает о своем
Беда лишь только в том, что крылатый слон не к каждому заглянет в дом
Но все же мы их ждем, мечтой одной живем
Fmaj7          C         G
Хотя все знают то, что нет ...

     Fmaj7   Em         Am   Am/G   Fmaj7    G        C
Что нет на свете вещих снов,   как нету крыльев у слонов.
	
	
	        
Комментарий автора: Am/G --0-- --1-- --2-- --2-- --X-- --3--

Текст, аккорды и табулатура для песни "Крылатые слоны", исполняет "Крематорий".
Используемые в песне аккорды можно найти в разделе Как брать аккорды. Аккорды для шестиструнной гитары. Другие песни можно найти на нашем сайте, воспользовавшись алфавитным указателем вверху страницы.


Слушать онлайн Крылатые слоны


КрематорийКрылатые слоны на Яндекс.Музыке


 
Ошибка в тексте? Выделите ошибку и нажмите Ctrl+Enter