Катманду.
Крематорий.

Intro:

E |7-----7-------10-10-|7-------------7-------|--------------------|
B |--------10-10-------|----------7-8-----7-8-|-8-8--8--8--7---7-5-|
G |--------------------|-------9--------9-----|--------------7-----|
D |--------------------|----------------------|--------------------|
A |--------------------|----------------------|--------------------|
E |--------------------|----------------------|--------------------|

 
E |--------------7-------|
B |----------7-8-----7-8-|
G |-------9--------9-----|
D |----------------------|
A |----------------------|
E |----------------------|

 
E |-7---------------|------10-10-7-------|--------------------|------|
B |---10-8-10-10--7-|10-10---------------|-8-8--8--8--7---8-5-|------|
G |-----------------|--------------------|--------------7-----|------|
D |-----------------|--------------------|--------------------|------|
A |-----------------|--------------------|--------------------|------|
E |-----------------|--------------------|--------------------|------|

E --------------------|
B ----------------8---|
G -9-9-9--9--9--7---9-|
D --------------------|
A --------------------|
E --------------------|


Bass:
G -------------|-------------|-------------|-------------|-0-0--------
D -2---0-0---0-|-2---2-2---0-|-2---0-0---0-|-2---2-2---0-|-----0-4-0-0
A ---2-----0---|---2-----2---|---2-----0---|---2-----2---|------------
E -------------|-------------|-------------|-------------|------------

G -----|-------------|-----------------|-----------------|------------
D ---0-|---0-2-2---0-|-2-2---0---0---0-|-2-2---0-2-2---0-|-2-2---0-2-2
A -0---|-2-------2---|-----2---2---2---|-----2-------2---|-----2------
E -----|-------------|-----------------|-----------------|------------

G -----|-------------|-------------|-------------|-------------|
D ---0-|-2---0-0---0-|-2---2-2---0-|-2---0-0---0-|-2---2-2---0-|
A -2---|---2-----0---|---2-----2---|---2-----0---|---2-----2---|
E -----|-------------|-------------|-------------|-------------|

Em         D        Em
     Мы любили танцевать
Em               G        Em
     Босиком на битом стекле,
C            D          G         Em
     Умели плавать в соляной кислоте
C                D         C
    И ходить по тонкому льду
   H7                        Em
        В своем родном Катманду.

   Чистили спиртом пищевод,
   Ходили с пъяну на войну.
   Но не дождавшись победного конца
   Возвращались по утру

        В свое родное Катманду.
         
Пр.      G              D        G 
           И Солнце в синих небесах
         C       D          G
           Без одежды и стыда
        Am       F        C
           Исполняет на "ура!"
        Em  C        D
           Танец живота.

Solo

Мы не гуляли по Вселенной
С песней вдоль и поперек,
Но можем смело сказать наперед -
Нет места лучше и в Раю

       Чем родное Катманду.

А кто с нами не согласен -
Пусть зарубит на носу:
Для нас Любовь - и Библия и пища,
Но можем дать и по лицу

        За родную Катманду.

Пр.









Текст, аккорды и табулатура для песни "Катманду", исполняет "Крематорий".
Используемые в песне аккорды можно найти в разделе Как брать аккорды. Аккорды для шестиструнной гитары. Другие песни можно найти на нашем сайте, воспользовавшись алфавитным указателем вверху страницы.


Слушать онлайн Катманду


КрематорийКатманду на Яндекс.Музыке


 
Ошибка в тексте? Выделите ошибку и нажмите Ctrl+Enter