-------------------------------------------------------------------------------
			     WHERE ARE WE RUNNIN'? - Lenny Kravitz
-------------------------------------------------------------------------------
Tabbed by: DOMENICO LOVASCIO (This is dedicated to God)
Email: [email protected]

Tuning: EADBGe

	MAIN RIFF (played in INTRO, CHORUS and SOLO)
e|---------------------------------------------------------------------------|
B|---------------------------------------------------------------------------|
G|---------------------------------------------------------------------------|
D|--7-7-7/9-9---------------------REPEATS 4 TIMES----------------------------|
A|--5-5-5/7-7-9-9-11-9-9-9-11-9----------------------------------------------|
E|------------7-7-7--7-7-7-7--7----------------------------------------------|

    VERSE (first and second are equal, see below for lyrics of  the 2nd verse)

        Fast lane,     high speed, on the grind		24/7
e|---------------------------------------------------------------------------|
B|---------------------------------------------------------------------------|
G|---------------------------------------------------------------------------|
D|-----------------------------------7-7--------------9-9/11-9-9/11-9--------|
A|--9-9-9-----------9-9-9------------5-5-7-7----------7-7/-9-7-7/-9-7--------|
E|--7-7-7-----------7-7-7----------------5-5---------------------------------|

	No time always runnin' here and there          Chasin the money
e|---------------------------------------------------------------------------|
B|---------------------------------------------------------------------------|
G|---------------------------------------------------------------------------|
D|-----------------------------------7-7--------------9-9/11-9-9/11-9--------|
A|--9-9-9-----------9-9-9------------5-5-7-7----------7-7/-9-7-7/-9-7--------|
E|--7-7-7-----------7-7-7----------------5-5---------------------------------|

    BRIDGE (played twice between verse and chorus and then before the solo, after the break)

   So much jibber jabber's clogging up our souls
e|---------------------------------------------------------------------------|
B|---------------------------------------------------------------------------|
G|---------------------------------------------------------------------------|
D|---------------------------------------------------------------------------|
A|---------------------------------------------------------------------------|
E|--3-3-3-3-3-3-3/5-5-5-5-5-5-5----------------------------------------------|

	CHORUS (see below for lyrics)

e|---------------------------------------------------------------------------|
B|---------------------------------------------------------------------------|
G|---------------------------------------------------------------------------|
D|--7-7-7/9-9---------------------REPEATS 4 TIMES----------------------------|
A|--5-5-5/7-7-9-9-11-9-9-9-11-9----------------------------------------------|
E|------------7-7-7--7-7-7-7--7----------------------------------------------|

	SOLO (2nd guitar plays MAIN RIFF)

e|---------------------------------------------------------------------------|
B|---------------------------------------------------------------------------|
G|-----7-9-9b11---11r9-7-9-7-9-7vv-------------7-9b11 artif. harm(7)------7--|
D|--s9------------------------------9-9----7-9------------------------9-9----|
A|---------------------------------------------------------------------------|
E|---------------------------------------------------------------------------|


e|-------------------------------------------10-12-----10p9-7----------------|
B|---10-12-12b14----------------------------------------------10-9-7---------|
G|---------------14r12-10-12-10-12-12----12--------------------------9-7-6---|
D|---------------------------------------------------------------------------|
A|---------------------------------------------------------------------------|
E|---------------------------------------------------------------------------|

e|---------------------------------------------------------------------------|
B|---------------------------------------------------------------------------|
G|---------------------------------------------------------------------------|
D|--9-7-7-9-9vvvvvvv---------------------------------------------------------|
A|---------------------------------------------------------------------------|
E|---------------------------------------------------------------------------|

FULL LYRICS:
Where Are We Runnin'?
 
(INTRO)

1ST VERSE:	fast lane
		high speed
		on the grind	
		24/7
		no time
		always runnin' here and there
		chasin' the money

BRIDGE:		so much jibber jabber's 
		cloggin' up our soul

CHORUS: 	where are we runnin' 
		we need some time to clear our heads
		where are we runnin'
		keep on working 'til we're dead
		where are we runnin'
		oo wee oo wee oo
		where are we runnin' now

2ND VERSE:	in style
		profile
		got to buy 
		the new Cavalli
		keep the skin tight 
		and the booty in the air
		don't stop the party 

BRIDGE:		the road is paved but narrow
		I hope we all get home 

CHORUS: 	where are we runnin' 
		we need some time to clear our heads
		where are we runnin'
		keep on working 'til we're dead
		where are we runnin'
		oo wee oo wee oo
		where are we runnin' now

BREAK:		where you runnin' girl
		I see you up there
		oh you up on that stage
		you up there
		I saw you

(GUITAR SOLO)

CHORUS: 	where are we runnin' 
		we need some time to clear our heads
		where are we runnin'
		keep on working 'til we're dead
		where are we runnin'
		oo wee oo wee oo
		where are we runnin' now


| /  slide up
|   slide down
| h  hammer-on
| p  pull-off
| vv vibrato
| +  harmonic
| x  Mute note
==================================================================


Текст, аккорды и табулатура для песни "Where Are We Runnin", исполняет "Kravitz Lenny".
Используемые в песне аккорды можно найти в разделе Как брать аккорды. Аккорды для шестиструнной гитары. Другие песни можно найти на нашем сайте, воспользовавшись алфавитным указателем вверху страницы.


 
Ошибка в тексте? Выделите ошибку и нажмите Ctrl+Enter